Your One-Stop Source For
Music Lyrics
Bass and Guitar Tabs
and More...
Music Lyrics Bass and Guitar Tabs

 

The Foo Fighters Guitar Tabs Are Below

Learn To Read Tab
Chords Handbook
Corrections & Additions
Get Official Tab
Foo Fighters tabs @ 911Tabs

Foo Fighters - On The Mend

 

Album: In Your Honor - 2005

Instrument: Guitar

Tuning: Standard

 

Tabbed By: Smogboy, Ian Grohl, Kerim B. Jansson

 

 

Verse

Gtr. 1

e||--0-0-0-0-0-0-0-0-0-0-0-0-0-0-0-0-0-0-0-0-0-0--||

B||--0-0-0-0-0-0-0-0-0-0-0-0-0-0-0-0-0-0-0-0-0-0--||

G||--3-3-3-3-3-3-3-3-3-1-1-1-1-1-1-1-1-1-1-1-1-1--||

D||--4-4-4-4-4-4-4-4-4-2-2-2-2-2-2-2-2-2-2-2-2-2--||

A||--4-4-4-4-4-4-4-4-4-2-2-2-2-2-2-2-2-2-2-2-2-2--||

E||--2-2-2-2-2-2-2-2-2-0-0-0-0-0-0-0-0-0-0-0-0-0--||

 

Gtr. 2

e||-----------2--------4----------------2----------0---------||

B||----0-----------0------0-------0----------0----------0----||

G||------3-----------3------3-------3----------3----------3--||

D||--4------4----4------4-------2-----2----2-----2----2------||

A||----------------------------------------------------------||

E||----------------------------------------------------------||

 

 

Chorus

Gtr. 1

e||--4-4-4-4-4-4-4-4-4-4-4-4-4-4-4-4-4-4-4-4-4-4-4-||

B||--4-4-4-4-4-4-4-4-4-4-4-4-4-4-4-4-4-4-4-4-4-4-4-||

G||--5-5-5-5-5-5-5-5-5-5-5-5-5-5-5-5-5-5-5-5-5-5-5-||

D||--6-6-6-6-6-6-6-6-6-6-6-6-6-6-6-6-6-6-6-6-6-6-6-||

A||--6-6-6-6-6-6-6-6-6-6-6-6-6-6-6-6-6-6-6-6-6-6-6-||

E||--4-4-4-4-4-4-4-4-4-4-4-4-4-4-4-4-4-4-4-4-4-4-4-||

 

e||--3-3-3-3-3-3-3-3-3-3-3-3-3-3-3-3-3-3-3-3-3-3-3-||

B||--3-3-3-3-3-3-3-3-3-3-3-3-3-3-3-3-3-3-3-3-3-3-3-||

G||--4-4-4-4-4-4-4-4-4-4-4-4-4-4-4-4-4-4-4-4-4-4-4-||

D||--5-5-5-5-5-5-5-5-5-5-5-5-5-5-5-5-5-5-5-5-5-5-5-||

A||--5-5-5-5-5-5-5-5-5-5-5-5-5-5-5-5-5-5-5-5-5-5-5-||

E||--3-3-3-3-3-3-3-3-3-3-3-3-3-3-3-3-3-3-3-3-3-3-3-||

 

Gtr. 2

e||-----------6---|| e||-----------5---||

B||----0----------|| B||----0----------||

G||------4--------|| x5 G||------4--------|| x5

D||--6------6-----|| D||--5------5-----||

A||---------------|| A||---------------||

E||---------------|| E||---------------||

"Was it you..."

 

 

Solo

Gtr. 1 [03:40]

e||-----------------------------------------------||

B||-----------------------------------------------||

G||-----------------------------------------------||

D||---8-9-8-9s11--11h13p11-11h13-14-13-11-9-------||

A||-----------------------------------------------||

E||-----------------------------------------------||

 

e||-----------------------------------------------||

B||-----------------------------------------------||

G||-----------------------------------------------||

D||---11-9-8-9-8-6-8-6-4-6-2-4-2-1----------------||

A||-----------------------------------------------||

E||-----------------------------------------------||

 

e||-----------------------------------------------||

B||-----------------------------------------------||

G||-----------------------------------------------||

D||---2-2s4-4s6-6s8-8s9-9s11----------------------||

A||-----------------------------------------------||

E||-----------------------------------------------||

 

e||-----------------------------------------------||

B||-----------------------------------------------||

G||-----------------------------------------------||

D||---11s9-9s8-8s6-6--11s9-9s8-8s6-6--------------||

A||-----------------------------------------------||

E||-----------------------------------------------||

 

Gtr 2 [03:55]

e||------------------------------------------------||

B||------------------------------------------------||

G||---11-13-11-13-13s15-15-16-15-16-18-16-15-13----||

D||------------------------------------------------||

A||------------------------------------------------||

E||------------------------------------------------||

 

e||------------------------------------------------||

B||------------------------------------------------||

G||---15-13-11-13-11-9-11-9-8-9-8-6-8-6-4h6--------||

D||------------------------------------------------||

A||------------------------------------------------||

E||------------------------------------------------||

 

Fade Out

 

 

* Lyrics *

 

One more day that I've survived

Another night alone

Pay no mind I'm doing fine

I'm breathing on my own

 

I'm here

And I'm on the mend

I'm here

And I'm on the mend my friend

 

Wake me when the hour arrives

Wake me with my name

See you somewhere down the line

We're tethered once again

 

I'm here

And I'm on the mend

I'm here

And I'm on the mend my friend

 

I'm here

And I'm on the mend

I'm here

And I'm on the mend my friend

 

Was it you

Who said hello

Here we go

 

Close your eyes and stay a while

But take me when you go

Single file we walk the mile

Wandering back home

 

I'm here

And I'm on the mend

I'm here

And I'm on the mend my friend

 

I'm here

And I'm on the mend

I'm here

And I'm on the mend my friend

 

Was it you

Who said hello

Here we go

Here we go

Here we go

Here we go

 

 

Click here to return to my Foo Fighters Guitar Tabs page

The Tablature is Copyright its respective owners.

Sign Up For My Newsletter
Subscribe | Unsubscribe

Site Map | Disclaimer | Privacy Policy | Media Kit | Submissions/Corrections

Website © 2000-2014 mattsmusicpage.com. All rights reserved.

Legal & DMCA: Matt's Music Page has been providing lyrics and tabs in a legal way, paying royalties each year to a few organizations. Then, all lyrics and tabs were removed from the site. Now, there's a new owner to the site, which purchased it August 26, 2014, and he is in negotiation to obtain licensing from BMI at the moment. If you have a specific DMCA request -- please do not hesitate to contact me via the contact button on top. I will do my very best to keep this site fully legal.

Get our toolbar!