Your One-Stop Source For
Music Lyrics
Bass and Guitar Tabs
and More...
Music Lyrics Bass and Guitar Tabs

 

Tabs of Foo Fighters Songs

Learn To Read Tab
Chords Handbook
Corrections & Additions
Get Official Tab
Foo Fighters tabs @ 911Tabs

Foo Fighters - Now I'm Here (Queen Cover)

(Normal Tuning)

 

 

Two guitars arranged for one

|---------|----|------0-|---------|-------------------------|---------|

|---------|----|------2-|-3-------|-------------------------|---------|

|-22222222|-0/-|-2222-0-|-22222222|-----------------00000000|-000000--|

|-00000000|-/0-|-0000--0|-00000000|-000000000000000000000000|-000000-0|

|---------|----|-----0--|---------|-333333332222222211111111|-11111130|

|---------| 3X |--------|---------|-------------------------|---------| riff A

 

|---------|----|--------|----------|-----------------|------------------|

|---------|----|------2-|-3--------|-----------------|-------2-3--------|

|-22222222|-0/-|-2222202|-222222222|----------------2|-2222220-222222222|

|-00000000|-/0-|-0000000|-000000000|-0000000000000--0|-00000000000000000|

|---------|----|--------|----------|-333333332222233-|------------------|

|---------|----|--------|----------|-----------------|------------------|

 

|----------------|---------------------------------------------|

|----------------|-2----3---32----3----4----5----54----5---4-4-|

|----------------|-2----0---02----0----4----4----44----4---4-4-|

|----------000000|-2----2----2----2----4----4-----4----4---4-4-|

|-333333332222222|-0----0----0----0----2----2-----2----2---2-2-|

|----------------|---------------------------------------------|

 

|--------------------------------------------------|

|----------------3-3-------------9-9--9-109---7-5-5|

|----------------2-2-------------9-9--9--99---7-6-6|

|------2--4-2----0-02--4-4-------9-9--9--99---7-7-7|

|---------2-0-----x 0--2-2-----577-7777--77---5-7-7|

|-00034-0-----340---------2-567--0-0000--00-----5-5|

 

 

Verse

|---0-------0-------5----------------------------------5--------|

|-4-0-4--4-40-4--9-95-9--9---7-5--------------------9--5-9--9---|

|-4-1-4--4-41-4--9-96-9--9---7-6-68--------8--------9--6-9--9---|

|-442-4--4-42-4--9-97-9--9---7-7-79--7-7---9-9------9--7-9--9---|

|-2-222--2-222---7-77---7--7---5-779--9-97569-91199--77-7--7----|

|------22------00----0-00------5-57710115--7-----700----0-00----|

 

|-----------------------------------------------------10------------------|

|---------------------9-------------------------------9--10------1111-3---|

|---9-----7-7-----9---910-----11-11-------13---13139--9---9-79-9-1111-4---|

|-9-9--77-7-7-9-9-9----111111-11-11-13-13-13---131399-----9-79-9-1111-5---|

|-9-7--77-5-5-9-9-7------1111--9--9-13-13-11---1111-7-------57-7--9-9-5---|

|-7-0-355-5-5-7-7-7-------9-9--9--9-11-11-11--------0-----------------3---|

...

 

[2:17]

 

B, E, A, B, ...

* *

|-/777--/777-------------/7777----------------------7----------------------------------|

|-/777--/777-97----------/7777971010101077997--977-97------101010-101010-101010-121212-|

|------------97---7--7b-------9711111111------9978-978-978-1111118111111811111181313138|

|--------------9-7-9---9------------------9---9---9------------------------------------|

|--------------------------------------------------------------------------------------|

|--------------------------------------------------------------------------------------|

 

|-----------------------------77---7---7---77----7-------7------------|

|-101010-------10-r9-------7--7797-797-797-77....10b12...-97----------|

|-1111118-\978-11-r9-797__-7----97--97--97----------------97----------|

|-------------9---------97--9-----9---9---9-----------------97--------|

|-------------------------9-----------------------------------97------|

|---------------------------------------------------------------7755--|

 

 

G, C, A, D, B, E, C#, F#, D...

 

|------------------------------------------|

|------------------------------------------|

|--------------2-2-------------------------|

|-----2-4-2----0-02--4-4---2-2-------------|

|-------2-0-----x-0--2-2---0-02----57------|

|-0-34-0----340---------2-----0-567--00...-|

 

...

 

[3:55]

|-5557-7--------/55557-7-7---------/12121212121212111112121111-9-9|

|-7777-7-79-----/77777-7-79-7------/141414141414141212141412121010|

|---------978-------------978-------------------------------------|

|------------9---------------97-----------------------------------|

|------------------------------9----------------------------------|

|-----------------------------------------------------------------|

 

|-77---------------------|

|-77977--7---77---77...--|

|---978--7---77---77...--|

|------977---77---77...--|

|--------9--999--999...--|

|------------------------|

 

___________________________

http://tabs.foofighters.com

 

Return to my to my Foo Fighters tabs page

The Tablature is Copyright its respective owners.

Sign Up For My Newsletter
Subscribe | Unsubscribe

Site Map | Disclaimer | Privacy Policy | Media Kit | Submissions/Corrections

Website © 2000-2014 mattsmusicpage.com. All rights reserved.

Legal & DMCA: Matt's Music Page has been providing lyrics and tabs in a legal way, paying royalties each year to a few organizations. Then, all lyrics and tabs were removed from the site. Now, there's a new owner to the site, which purchased it August 26, 2014, and he is in negotiation to obtain licensing from BMI at the moment. If you have a specific DMCA request -- please do not hesitate to contact me via the contact button on top. I will do my very best to keep this site fully legal.

Get our toolbar!