Your One-Stop Source For
Music Lyrics
Bass and Guitar Tabs
and More...
>Music Lyrics Bass and Guitar Tabs

 

The Foo Fighters Bass Tabs Are Below

Learn To Read Tab
Chords Handbook
Corrections & Additions
Get Official Tab
Foo Fighters tabs @ 911Tabs

Foo Fighters - No Way Back

 

Album: 2005 - In Your Honor

Instrument: Bass

Tuning: GDAE

 

Tabbed By: smdbassdude

 

 

Intro

G|---------------------------------|---------------------------------|

D|---------------------------------|---------------------------------|

A|-----------------------------5~--|-----------------------------5~--|

E|---------------------------------|-0~------------------------------|

 

G|---------------------------------|---------------------------------|

D|---------------------------------|---------------------------------|

A|-----------------------------5~--|-----------------------------5~--|

E|-0~--0-0~--0-0~----0-0-0-0-0-----|-0~--0-0~--0-0~----0-0-0-0-0-----|

 

G|---------------------------------|---------------------------------|

D|---------------------------------|---------------------------------|

A|-----------------------------5~--|-----------------------------5~--|

E|-0~--0-0~--0-0~----0-0-0-0-0-----|-0~--0-0~--0-0~----0-0-0-0-0-----|

 

Verse 1

G|---------------------------------|---------------------------------|

D|-----------------7---------------|-----------------7---------------|

A|-0---0-0---0-0-0-----0-0---0-0-0-|-0---0-0---0-0-0-----0-0---0-0-0-|

E|---------------------------------|---------------------------------|

 

G|---------------------------------|---------------------------------|

D|-----------------7---------------|-----------------7---------------|

A|-0---0-0---0-0-0-----0-0---0-0-0-|-0---0-0---0-0-0-----0-0---0-0-0-|

E|---------------------------------|---------------------------------|

 

G|---------------------------------|---------------------------------|

D|---------------------------------|---------------------------------|

A|-------------------------------5-|-------------------------------5-|

E|-0~--0-0~--0-0~----0-0-0-0-0-----|-0~--0-0~--0-0~----0-0-0-0-0-----|

 

G|---------------------------------|---------------------------------|

D|-----------------7---------------|-----------------7---------------|

A|-0---0-0---0-0-0-----0-0---0-0-0-|-0---0-0---0-0-0-----0-0---0-0-0-|

E|---------------------------------|---------------------------------|

 

G|---------------------------------|---------------------------------|

D|-----------------7---------------|-----------------7---------------|

A|-0---0-0---0-0-0-----0-0---0-0-0-|-0---0-0---0-0-0-----0-0--h2-2-0-|

E|---------------------------------|---------------------------------|

 

G|---------------------------------|---------------------------------|

D|---------------------------------|---------------------------------|

A|-------------------------------5-|---------------------------------|

E|-0~--0-0~--0-0~----0-0-0-0-0-----|-0~--0-0~--0-0~----0-0-0-0-0-0-0-|

 

 

Chorus

G|---------------------------------|---------------------------------|

D|---------------------------------|---------------------------------|

A|-5---5-5---5-5-5---5-5-5-5-5-5-5-|-0---0-0---0-0-0---0-0-0-0-0-0-0-|

E|---------------------------------|---------------------------------|

 

G|---------------------------------|---------------------------------|

D|---------------------------------|---------------------------------|

A|---------------------------------|-2---2-2---2-2-2---2-2-2-2-2-0-0-|

E|-0---0-0---0-0-0---0-0-0-0-0-0-0-|---------------------------------|

 

G|---------------------------------|---------------------------------|

D|---------------------------------|---------------------------------|

A|-5---5-5---5-5-5---5-5-5-5-5-5-5-|-0---0-0---0-0-0---0-0-0-0-0-0-0-|

E|---------------------------------|---------------------------------|

 

G|---------------------------------|---------------------------------|

D|---------------------------------|---------------------------------|

A|---------------------------------|-2---2-2---2-2-2---2-2-2-2-2-2---|

E|-0---0-0---0-0-0---0-0-0-0-0-0-0-|---------------------------------|

 

G|------------------------------------|------------------------------|

D|------------------------------------|------------------------------|

A|-0---0-0---0-0-0---0-0-0-0----------|-------------------------5----|

E|---------------------------///\\\\\\|-3-------2-------0------------|

 

 

Verse 2

G|---------------------------------|---------------------------------|

D|---------------------------------|---------------------------------|

A|-------------------------------5-|-------------------------------5-|

E|-0-0~--0-0-0---0-0-0-0-0-0-0-0---|-0~--0-0~--0-0~----0-0-0-0-0-----|

 

G|---------------------------------|---------------------------------|

D|-----------------7---------------|-----------------7---------------|

A|-0---0-0---0-0-0-----0-0---0-0-0-|-0---0-0---0-0-0-----0-0---0-0-0-|

E|---------------------------------|---------------------------------|

 

G|---------------------------------|---------------------------------|

D|-----------------7---------------|-----------------7---------------|

A|-0---0-0---0-0-0-----0-0---0-0-0-|-0---0-0---0-0-0-----0-0---0-0-0-|

E|---------------------------------|---------------------------------|

 

G|---------------------------------|---------------------------------|

D|---------------------------------|---------------------------------|

A|-------------------------------5-|-------------------------------5-|

E|-0~--0-0~--0-0~----0-0-0-0-0-----|-0~--0-0~--0-0~----0-0-0-0-0-----|

 

G|---------------------------------|---------------------------------|

D|-----------------7---------------|-----------------7---------------|

A|-0---0-0---0-0-0-----0-0---0-0-0-|-0---0-0---0-0-0-----0-0---0-0-0-|

E|---------------------------------|---------------------------------|

 

G|---------------------------------|---------------------------------|

D|-----------------7---------------|-7~------7~------7~--------------|

A|-0---0-0---0-0-0-----0-0---0-0-0-|-----0-------0-------0---0h2-0---|

E|---------------------------------|-------------------------------4-|

 

G|---------------------------------|---------------------------------|

D|---------------------------------|-------------------9---11--------|

A|-------------------------------5-|---------------------0---0-11-9--|

E|-0~--0-0~--0-0~----0-0-0-0-0-----|-0~--0-0~--0-0~-----------------0|

 

 

Chorus

 

 

Solo

G|---------------------------------|---------------------------------|

D|---------------------------------|---------------------------------|

A|---------------------------5~----|---------------------------------|

E|-0-0---------------------------0~|---------------------------------|

 

G|---------------------------------|---------------------------------|

D|---------------------------------|---------------------------------|

A|-------------------------------5-|-------------------------------5-|

E|-0~--0-0~--0-0~----0-0-0-0-0-----|-0~--0-0~--0-0~----0-0-0-0-0-----|

 

G|---------------------------------|---------------------------------|

D|-----------------7---------------|-----------------7---------------|

A|-0---0-0---0-0-0-----0-0---0-0-0-|-0---0-0---0-0-0-----0-0---0-0-0-|

E|---------------------------------|---------------------------------|

 

G|---------------------------------|---------------------------------|

D|-----------------7---------------|-7~------7~------7~--------------|

A|-0---0-0---0-0-0-----0-0---0-0-0-|-----0-0-----0-0-----0-----2p0---|

E|---------------------------------|-------------------------------4-|

 

G|---------------------------------|---------------------------------|

D|---------------------------------|-------------------9---11--------|

A|-------------------------------5-|---------------------0---0-11-9--|

E|-0~--0-0~--0-0~----0-0-0-0-0-----|-0~--0-0~--0-0~-----------------0|

 

 

Chorus

 

 

Outro

G|---------------------------------|---------------------------------|

D|---------------------------------|---------------------------------|

A|-----------------------------5~--|-----------------------------5~--|

E|-0-0-----------------------------|-0~------------------------------|

 

G|---------------------------------|---------------------------------|

D|---------------------------------|---------------------------------|

A|-----------------------------5---|-----------------------------5---|

E|-0~--0-0~--0-0~----0-0-0-0-0-----|-0~--0-0~--0-0~----0-0-0-0-0-----|

 

G|---------------------------------|---------------------------------|

D|---------------------------------|---------------------------------|

A|-----------------------------5---|-----------------------------5---|

E|-0~--0-0~--0-0~----0-0-0-0-0-----|-0~--0-0~--0-0~----0-0-0-0-0-----|

 

 

Click here to return to my Foo Fighters Bass Tabs page

The Tablature is Copyright its respective owners.

Sign Up For My Newsletter
Subscribe | Unsubscribe

Site Map | Disclaimer | Privacy Policy | Media Kit | Submissions/Corrections

Website © 2000-2014 mattsmusicpage.com. All rights reserved.

Legal & DMCA: Matt's Music Page has been providing lyrics and tabs in a legal way, paying royalties each year to a few organizations. Then, all lyrics and tabs were removed from the site. Now, there's a new owner to the site, which purchased it August 26, 2014, and he is in negotiation to obtain licensing from BMI at the moment. If you have a specific DMCA request -- please do not hesitate to contact me via the contact button on top. I will do my very best to keep this site fully legal.

Get our toolbar!

 

Tin Miller genuine draft beer guitar sign
$34.99
Tin Miller genuine draft beer guitar sign picture


Vintage Graceful Christmas Winged Angel Statue Strumming A Guitar-9" Unique
$9.99
Vintage Graceful Christmas Winged Angel Statue Strumming A Guitar-9


1960‘s KNBC NBC Radio Station Photo s Doug Pledger San Francisco Gretsch Guitar
$29.0
1960‘s KNBC NBC Radio Station Photo s Doug Pledger San Francisco Gretsch Guitar picture


Chinese Figurines Lot of 5 Guitar, Warrior, Staff, Robes (4" tall) "USED"
$39.99
Chinese Figurines Lot of 5 Guitar, Warrior, Staff, Robes (4


Lladro FIGURINE Girl With Guitar (L4871G) 72857
$109.95
Lladro FIGURINE Girl With Guitar (L4871G) 72857 picture