Your One-Stop Source For
Music Lyrics
Bass and Guitar Tabs
and More...
Music Lyrics Bass and Guitar Tabs

 

Tabs of Foo Fighters Songs

Learn To Read Tab
Chords Handbook
Corrections & Additions
Get Official Tab
Foo Fighters tabs @ 911Tabs

Foo Fighters - Lovin' Touchin' Squeezin'

(Normal Tuning)

 

 

Riff 1

e||-----------------------------------------||

B||-----------------------------------------||

G||--------------------------4--------------||

D||--------------------4--7--------7--2--5--||

A||-----2--4--5-----5--------------7--2--5--||

E||--5-----------------------------5--0--3--||

 

 

Riff 2

e||-----------------------------------||

B||-----------------------------------||

G||-----------------------------------||

D||--4--7--4--7--5--2--------------7--||

A||--4--7--4--7--5--2--7--5--------7--||

E||--2--5--2--5--3--0--------5--7--5--||

 

 

Riff 3

e||-----------||

B||-----------||

G||-----------||

D||--7--4--5--||

A||--7--4--5--||

E||--5--2--3--||

 

___________________________

http://tabs.foofighters.com

 

Return to my to my Foo Fighters tabs page

The Tablature is Copyright its respective owners.

Sign Up For My Newsletter
Subscribe | Unsubscribe

Site Map | Disclaimer | Privacy Policy | Media Kit | Submissions/Corrections

Website © 2000-2014 mattsmusicpage.com. All rights reserved.

Legal & DMCA: Matt's Music Page has been providing lyrics and tabs in a legal way, paying royalties each year to a few organizations. Then, all lyrics and tabs were removed from the site. Now, there's a new owner to the site, which purchased it August 26, 2014, and he is in negotiation to obtain licensing from BMI at the moment. If you have a specific DMCA request -- please do not hesitate to contact me via the contact button on top. I will do my very best to keep this site fully legal.

Get our toolbar!