Your One-Stop Source For
Music Lyrics
Bass and Guitar Tabs
and More...
Music Lyrics Bass and Guitar Tabs

 

The Foo Fighters Guitar Tabs Are Below

Learn To Read Tab
Chords Handbook
Corrections & Additions
Get Official Tab
Foo Fighters tabs @ 911Tabs

Foo Fighters - In Your Honor

 

Album: 2005 - In Your Honor

Instrument: Guitar

Tuning: eBGDAE

 

Tabbed By: WTFDaveMustaine?

 

 

Intro/Verse

e||-------|-----------------------------------------------------||

B||-------|-----------------------------------------------------||

G||-------|--------------9-9-9-9-9-9--8-8-8-8-8-8--4-4-4-4-4-4--||

D||-------|--------------x-x-x-x-x-x--x-x-x-x-x-x--x-x-x-x-x-x--||

A||-------|-7-7-7-7-7-7--7-7-7-7-7-7--6-6-6-6-6-6--2-2-2-2-2-2--||

E||--0~~~-|-0-0-0-0-0-0-----------------------------------------||

 

 

Chorus

E||----------------------||

B||----------------------||

G||--9---11---6---9--11--||

D||--x---x----x---x--x---||

A||--7---9----4---7--9---||

E||----------------------||

 

 

Heavy part

e||---------------------------------||

B||---------------------------------||

G||---------------------------------||

D||---------------------------------||

A||---------------------------------||

E||--11h12h0--7h0h7h0-0--5h0h7h0-0--||

 

or alternatively...

e||---------------------------------||

B||---------------------------------||

G||---------------------------------||

D||---------------------------------||

A||--6h7h0--------------------------||

E||---------7h0h7h0-0--5h0h7h0-0----||

 

 

 

* Lyrics *

 

Can you hear me

Hear me screaming

Breaking in the muted sky

This thunder heart

Like bombs beating

Echoing a thousand miles

 

Mine is yours and yours is mine

There is no divide

In your honor I would die tonight

Mine is yours and yours is mine

I will sacrifice

In your honor I would die tonight

For you to feel alive

 

Can you feel me

Feel me breathing

One last breath before I close my eyes

This offering

For receiving

Deliver me into the other side

 

Mine is yours and yours is mine

There is no divide

In your honor I would die tonight

Mine is yours and yours is mine

I will sacrifice

In your honor I would die tonight

For you to feel alive

 

For you to feel alive

For you to feel alive

For you to feel alive

AHH

 

Click here to return to my Foo Fighters Guitar Tabs page

The Tablature is Copyright its respective owners.

Sign Up For My Newsletter
Subscribe | Unsubscribe

Site Map | Disclaimer | Privacy Policy | Media Kit | Submissions/Corrections

Website © 2000-2014 mattsmusicpage.com. All rights reserved.

Get our toolbar!