Your One-Stop Source For
Music Lyrics
Bass and Guitar Tabs
and More...
Music Lyrics Bass and Guitar Tabs

 

Tabs of Foo Fighters Songs

Learn To Read Tab
Chords Handbook
Corrections & Additions
Get Official Tab
Foo Fighters tabs @ 911Tabs

Foo Fighters - How Do You Do?

(Normal Tuning)

 

 

Intro

(Gtr. 1)

e||-------------------3333----------------||

B||-------------------22222222------------||

G||--22222222---------33331111------------||

D||--2222222222222222-00000000-44---------||

A||--00004444xxxx2222-----6666-22--44444--||

E||----------22220000-----4444----022222--||

 

(Gtr. 2)

e||---------------------------------------------------------------------------||

B||---------------------------------------------------------------------------||

G||--14-14-14-14-14-14-14-14-14-14-14-14-14-13-13-13-13-14-14-14-11-11-11-11--||

D||---x--x--x--x--x--x--x--x--x--x--x--x--x--x--x--x--x--x--x--x-x--x--x--x---||

A||--12-12-12-12-12-12-12-12-12-12-12-12-12-11-11-11-11-12-12-12-9--9--9--9---||

E||---------------------------------------------------------------------------||

 

 

Verse

e||--------------------3333----------------||

B||--------------------22222222------------||

G||--22222222-22222222-33331111-44---------||

D||--22222222-22222222-00000000-44--44444--||

A||--00000000-00000000----------22--44444--||

E||-------------------------------0-22222--||

 

 

Bridge

e||--00000000--------------------||

B||--33333333--------------------||

G||--22222222-22222222-11111111--||

D||--00000000-11111111-00000000--||

A||-----------22222222-22222222--||

E||--------------------00000000--||

 

 

Chorus

e||------------------------------||

B||------------------------------||

G||--22222222-22222222-77777777--||

D||--22222222-11111111-77777777--||

A||--00000000-22222222-55555555--||

E||------------------------------||

 

 

Solo

e|---------------------|---------------------|

B|---------------------|---------------------|

G|-14---14----14b16b14-|-14---14----14b16b14-|

D|----14---14----------|----14---14----------|

A|---------------------|---------------------|

E|---------------------|---------------------|

 

e|-------------------------------|

B|-------------------------------|

G|-16b18-(18)-(18)b16-14---------|

D|-----------------------16---14-|

A|-------------------------------|

E|-------------------------------|

 

e|----17------------------------------------------------|

B|----------17--14-15-17-17-17-17b19-(19)-(19)b17-17-16-|

G|-14----14---------------------------------------------|

D|------------------------------------------------------|

A|------------------------------------------------------|

E|------------------------------------------------------|

 

e|------------------------------------|

B|----------------5-7-7b*-7b*-7b*-5-4-|

G|-----------2-/6---------------------|

D|-------2-4--------------------------|

A|-0-2h4------------------------------|

E|------------------------------------|

 

* = very light bend

 

___________________________

http://tabs.foofighters.com

 

Return to my to my Foo Fighters tabs page

The Tablature is Copyright its respective owners.

Sign Up For My Newsletter
Subscribe | Unsubscribe

Site Map | Disclaimer | Privacy Policy | Media Kit | Submissions/Corrections

Website © 2000-2014 mattsmusicpage.com. All rights reserved.

Legal & DMCA: Matt's Music Page has been providing lyrics and tabs in a legal way, paying royalties each year to a few organizations. Then, all lyrics and tabs were removed from the site. Now, there's a new owner to the site, which purchased it August 26, 2014, and he is in negotiation to obtain licensing from BMI at the moment. If you have a specific DMCA request -- please do not hesitate to contact me via the contact button on top. I will do my very best to keep this site fully legal.

Get our toolbar!