Your One-Stop Source For
Music Lyrics
Bass and Guitar Tabs
and More...
Music Lyrics Bass and Guitar Tabs

 

Tabs of Foo Fighters Songs

Learn To Read Tab
Chords Handbook
Corrections & Additions
Get Official Tab
Foo Fighters tabs @ 911Tabs

 

How I Miss You

Foo Fighters

 

 

Dropped-D tuning

 

Verse

e|-------------------------------------------------------------

b|-------------------------------------------------------------

g|-11--------11--------11--13--------13--------13----------13--

d|-------------------------------------------------------------

a|-9---------9---------9---11--------11--------11----------11--

d|-0--0--0---0--0--0---0---0---0--0--0---0--0--0---0---0---0---

1. How i miss you [x3]

2. Did i lose you [x3]

3. Do you miss me

Like i miss you

If you miss me

 

Verse [cont'd]

e|---------------------------------------------------------------

b|---------------------------------------------------------------

g|--9--------9--9--7--------7--7---10-------10----10----10-10-10-

d|---------------------------------------------------------------

a|--7--7--7--7--7--5--5--5--5--5---8--8--8--8--8--8--8--8--8--8--

e|--0--0--0--0--0--0--0--0--0--0---0--0--0--0--0--0--0--0--0--0--

1.I should never call how i hope that you still miss me

2.Somewhere down the line hide and seeks alrigt if i find

3. Never go away hopefully you'll come and stay someday

 

e|--------------------------------------------------------------

b|--------------------------------------------------------------

g|--12-12-12-12-12-12-12-12-10-10-10-10-10-10-10-10-13-13-13-13-

d|--------------------------------------------------------------

a|--10-10-10-10-10-10-10-10-8--8--8--8--8--8--8--8--11-11-11-11-

d|--0--0--0--0--0--0--0--0--0--0--0--0--0--0--0--0--0--0--0--0--

If you're leaving come back soon

that's not easy to say

I will wait here dream of you

 

e|-----------------------------------------------------

b|-----------------------------------------------------

g|--12-12-12-12-12-12-12-12-10-10-10-10-10-10-10-10-5--

d|-----------------------------------------------------

a|--10-10-10-10-10-10-10-10-8--8--8--8--8--8--8--8--3--

e|--0--0--0--0--0--0--0--0--0--0--0--0--0--0--0--0--0--

all alone as i ache

 

[Now kick on the Distortion]

 

e|-------------------------------------------------------------

b|-------------------------------------------------------------

g|-11--------11--------11--13--------13--------13----------13--

d|-------------------------------------------------------------

a|-9---------9---------9---11--------11--------11----------11--

d|-0--0--0---0--0--0---0---0---0--0--0---0--0--0---0---0---0---

1. Did i lose you [x3]

2. Did you miss me

Like i miss you

If you miss me

 

e|---------------------------------------------------------------

b|---------------------------------------------------------------

g|--9--------9--9--7--------7--7---10-------10----10----10-10-10-

d|---------------------------------------------------------------

a|--7--7--7--7--7--5--5--5--5--5---8--8--8--8--8--8--8--8--8--8--

e|--0--0--0--0--0--0--0--0--0--0---0--0--0--0--0--0--0--0--0--0--

1. Somewhere down the line hide and seeks alrigt if i find

2. Never go away hopefully you'll come and stay someday

 

e|--------------------------------------------------------------

b|--------------------------------------------------------------

g|--12-12-12-12-12-12-12-12-10-10-10-10-10-10-10-10-13-13-13-13-

d|--------------------------------------------------------------

a|--10-10-10-10-10-10-10-10-8--8--8--8--8--8--8--8--11-11-11-11-

d|--0--0--0--0--0--0--0--0--0--0--0--0--0--0--0--0--0--0--0--0--

If you're leaving come back soon

that's not easy to say

I will wait here dream of you

 

e|-----------------------------------------------------

b|-----------------------------------------------------

g|--12-12-12-12-12-12-12-12-10-10-10-10-10-10-10-10-5--

d|-----------------------------------------------------

a|--10-10-10-10-10-10-10-10-8--8--8--8--8--8--8--8--3--

e|--0--0--0--0--0--0--0--0--0--0--0--0--0--0--0--0--0--

all alone as i ache

 

[Now turn the Distortion off]

 

e|-------------------------------------------------------------

b|-------------------------------------------------------------

g|-11--------11--------11--13--------13--------13----------13--

d|-------------------------------------------------------------

a|-9---------9---------9---11--------11--------11----------11--

d|-0--0--0---0--0--0---0---0---0--0--0---0--0--0---0---0---0---

How i miss you [x3]

[quiet] [unplug guitar]

e|---------------------------------------------------------------

b|---------------------------------------------------------------

g|--9--------9--9--7--------7------------------------------------

d|---------------------------------------------------------------

a|--7--7--7--7--7--5--5--5---------------------------------------

e|--0--0--0--0--0--0--0--0--0------------------------------------

1. I should never call how i hope that you still miss me

 

 

--------------------------------------------------------------------------------

How I Miss You

Foo Fighters

 

 

e|-x---x---x---x---x---x---x---x---x---x---x---x

B|-x---x---x---x---x---x---x---x---x---x---x---x

G|-5---5---5---5---5---5---7---7---7---7---7---7

D|-6---6---6---6---6---6---8---8---8---8---8---8

A|-7---7---7---7---7---7---9---9---9---9---9---9

E|-x---x---x---x---x---x---x---x---x---x---x---x

 

 

LYRICS

 

How I miss You

How I miss You

How I miss You

I should never call

 

Did I lose you

Did I lose you

Did I lose you

somewhere along the way

Hide and seek's allright, If I find

 

Do you miss me,

Like I miss You

If You miss Me

Never go away

 

 

Return to my to my Foo Fighters tabs page

The Tablature is Copyright its respective owners.

Sign Up For My Newsletter
Subscribe | Unsubscribe

Site Map | Disclaimer | Privacy Policy | Media Kit | Submissions/Corrections

Website © 2000-2014 mattsmusicpage.com. All rights reserved.

Legal & DMCA: Matt's Music Page has been providing lyrics and tabs in a legal way, paying royalties each year to a few organizations. Then, all lyrics and tabs were removed from the site. Now, there's a new owner to the site, which purchased it August 26, 2014, and he is in negotiation to obtain licensing from BMI at the moment. If you have a specific DMCA request -- please do not hesitate to contact me via the contact button on top. I will do my very best to keep this site fully legal.

Get our toolbar!