Your One-Stop Source For
Music Lyrics
Bass and Guitar Tabs
and More...
Music Lyrics Bass and Guitar Tabs

 

Tabs of Foo Fighters Songs

Learn To Read Tab
Chords Handbook
Corrections & Additions
Get Official Tab
Foo Fighters tabs @ 911Tabs

Foo Fighters - Have A Cigar (Pink Floyd Cover)

(Normal Tuning)

 

 

e:------------|----------------------------------------------|

B:------------|----------------------------------------------|

G:--X-X-X-X-\-|----------------------------------------------|

D:--X-X-X-X-\-|---2--------2-2---2-------2--------2-2---2----|

A:--X-X-X-X-\-|---2--------2-2---2-------2--------2-2---2----|

E:--X-X-X-7-\-|-0---0-3--0-----3---3~--0---0-3--0-----3---3~-|

 

First guitar plays this riff throughout the intro

e:---------------------------------------------------------|

B:---------------------------------------------------------|

G:---------------------------------------------------------|

D:---2---------2---2-----2---------2---------2--2-----2----|

A:---2---------2---2-----2---------2---------2--2-----2----|

E:-0---0-3--0---------3----3~---0-----0--3-0-------3----3~-|

| |

| Second guitar enters |

e:---------------------------------------------------------|

B:---------------------------------------------------------|

G:---------------------------------------------------------|

D:----------2--0-------------------------7b(9)-~~----------|

A:----------------2--1--0----------------------------------|

E:-------------------------3-------------------------------|

 

Keyboard plays along with this

Em F# G C C G F# Em

e:---------------------------------------------12-12--12-\-|

B:---------------------------------------------12-12--12---|

G:--0----2----3----5------5----3----2----0-----------------|

D:--2----4----5----5------5----5----4----2-----------------|

A:--2----4----5----3------3----5----4----2-----------------|

E:---------------------------------------------------------|

 

Em F# G C D

e:---------------------------------------------------------|

B:---------------------------------------------------------|

G:--0----2----3---5-------7--------------------------------|

D:--2----4----5---5-------7-----5---4--2--0----------0-1-2-|

A:--2----4----5---3-------5------------------3---2-3-------|

E:---------------------------------------------------------|

 

e:--12b(14)~~----------------|

B:---------------------------|

G:---------------------------|

D:---------------------------|

A:---------------------------|

E:---------------------------|

 

 

- Verse:

The rythm guitar for the verse uses the same riff from

the intro with double barre chords strummings in the middle:

 

(main riff)

Come in here dear boy have a cigar you're gonna go far

You're gonna fly high

 

C D

You're never gonna die, you're gonna make it if you try

 

(main riff)

They're gonna love you.

 

 

- Chorus:

 

And did we tell you the name of the game, boy,

C D E C

e:---------------------------------------------------------|

B:---------------------------------------------------------|

G:------------5-----------7------------9-----5-------------|

D:------------5-----------7------------9-----5-------------|

A:------------3-----------5------------7-----3-------------|

E:---------------------------------------------------------|

 

We call it riding the gravy train. Yeah...

D G C G

e:---------------------------------------------------------|

B:---------------------------------------------------------|

G:------------7------------------------5-------------------|

D:------------7-----------5------------5------5------------|

A:------------5-----------5------------3------5------------|

E:------------------------3-------------------3------------|

G F# F Em

e:---------------------------------------------------------|

B:---------------------------------------------------------|

G:-----------------0---------------------------------------|

D:--5--4----4--3---2---------------------------------------|

A:--5--4----4--3---2---------------------------------------|

E:--3--2----2--1---0---------------------------------------|

 

 

- Lead Fills:

The following are fills played on the second guitar

with the words shown as markers for where they come in:

 

after "...you're gonna go far"

e:---------------------------------------------------------|

B:---------------------------------------------------------|

G:---------------------------------------------------------|

D:-------------------------------7b(9)====(9)b(8)b(9)------|

A:---------------------------------------------------------|

E:---------------------------------------------------------|

 

after "...they're gonna love you"

e:-----------------------------------11b(12)-\-(11)--------|

B:-----------------------------------11b(12)-\-(11)--------|

G:---------------------------------------------------------|

D:------------------------------------------grad.----------|

A:------------------------------------------release--------|

E:---------------------------------------------------------|

 

after "...I mean that most sincerely"

e:--------------------------------------10-/-12---10~------|

B:--------------------------------------10-/-12---10~------|

G:---------------------------------------------------------|

D:---------------------------------------------------------|

A:---------------------------------------------------------|

E:---------------------------------------------------------|

 

after "...which one's Pink?"

e:---------------------------------10b(12)==12~~-----------|

B:---------------------------------------------------------|

G:---------------------------------------------------------|

D:---------------------------------------------------------|

A:---------------------------------------------------------|

E:---------------------------------------------------------|

 

before "We're just..."

e:--12h10------10b(12)-------------------------------------|

B:---------12----------------------------------------------|

G:---------------------------------------------------------|

D:---------------------------------------------------------|

A:---------------------------------------------------------|

E:---------------------------------------------------------|

 

after "We're just knocked out"

e:---------------------------------------------------------|

B:---------------------------------------------------------|

G:---------------------------------------------------------|

D:----------------------------------(9)b7--\-5-------------|

A:---------------------------------------------------------|

E:---------------------------------------------------------|

 

after "...hot about the sound"

e:---------------------------------------------------------|

B:---------------------------------------------------------|

G:---------------------------------------------------------|

D:--------------------------------7b(9)=(9)b7-\-5---7------|

A:---------------------------------------------------------|

E:---------------------------------------------------------|

 

after "...we can hardly count"

e:-----------------------------------11b(12)-\-(11)--------|

B:-----------------------------------11b(12)-\-(11)--------|

G:---------------------------------------------------------|

D:------------------------------------------grad.----------|

A:------------------------------------------release--------|

E:---------------------------------------------------------|

 

after "...else is just green"

e:---------------------------------10-/-12---10------------|

B:---------------------------------10-/-12---10------------|

G:---------------------------------------------------------|

D:---------------------------------------------------------|

A:---------------------------------------------------------|

E:---------------------------------------------------------|

 

after "..together as a team"

e:---------------------------------------------------------|

B:---------------------------------------------------------|

G:--------------------------------(9)b7-\--5---------------|

D:---------------------------------------------------------|

A:---------------------------------------------------------|

E:---------------------------------------------------------|

 

 

 

Solo:

 

e:-10b(12)--10---------------------------------------------|

B:-------------10b(12)b10---8b(10)=(10)b8------------------|

G:---------------------------------------------------------|

D:---------------------------------------------------------|

A:---------------------------------------------------------|

E:---------------------------------------------------------|

 

e:----------12h15h12--15b(17)--17b(19)=(19)==(19)--15b(16)-|

B:-15b(17)-------------------------------------------------|

G:---------------------------------------------------------|

D:---------------------------------------------------------|

A:---------------------------------------------------------|

E:---------------------------------------------------------|

 

e:--15-15h12-----------------------------------------------|

B:------------15--15--15b(17)------------------------------|

G:-----------------------------14b(15)==(15)b14-\--7--9----|

D:---------------------------------------------------------|

A:---------------------------------------------------------|

E:---------------------------------------------------------|

 

____________________________________________________________

Have A Cigar (Pink Floyd Cover)

(Normal Tuning)

 

 

Intro: Play Fig. 1 – Fig. 2 – Fig. 1 – Fig. 2

 

Figure 1

Em E F# G C C G F# E

e:|--------------|------------|------------|---|---|--------------|

B:|--------------|------------|------------|---|---|--------------|

G:|--------------|------------|------------|---|---|--------------|

D:|---2----------|-2-2---2----|-9-11-12----|-*-|-*-|----12—11—9---|

A:|---2-----b----|-2-2---2----|-7--9-10-10-|-*-|-*-|-10-10--9—7---|

E:|-0---0-3(4)-0-|-----3---3~-|----------8-|-*-|-*-|--8-----------|

------Riff A 2X--------

 

* in PF version, riff on C in these 2 bars

in FF version, play Riff A once

 

Figure 2

Em E F# G C D G F# E D C# C # D # E

e:|--------------|------------|------------|---|---|--------------------|-----------|

B:|--------------|------------|------------|---|---|--------------------|-----------|

G:|--------------|------------|------------|---|---|--------------------|-----------|

D:|---2----------|-2-2---2----|-9-11-12----|-*-|-*-|----12—11--9--7--6--|-5-6-7-8-9-|

A:|---2-----b----|-2-2---2----|-7--9-10-10-|-*-|-*-|-12-10--9--7--5--4--|-3-4-5-6-7-|

E:|-0---0-3(4)-0-|-----3---3~-|----------8-|-*-|-*-|-10-----------------|-----------|

-------Riff A 2X--------

 

* in PF version, riff on C in these 2 bars

in FF version, play Riff A once

 

 

Verse:

Riff A twice

V1 Come in here dear boy have a cigar you're gonna go far You're gonna fly high

V2 I've always had a deep respect I mean that most sincerely the band is just fantastic

V3 We're just knocked out We heard about the sell out You gotta get an album out

V4 Everyone else is just green, Have you seen the chart? It's a helluva start,

 

C D

e:|-----------------|--------------------|

B:|-----------------|--------------------|

G:|-5-/-/-/-/-/-/-/-|---7-/-/-/-/-/-/-/--|

D:|-5-/-/-/-/-/-/-/-|---7-/-/-/-/-/-/-/--|

A:|-3-/-/-/-/-/-/-/-|---5-/-/-/-/-/-/-/--|

E:|-----------------|--------------------|

V1 You're never gonna die, gonna make it if you try They're gonna love you.

V2 that is really what I think. Oh by the way, which one's Pink?

V3 You owe it to the people We're so happy we can hardly count

V4 It could be made into a monster If we all pull together as a team

Then back to Riff A once

 

 

Chorus: C D E C

e:---------------------------------------------------------|

B:------------1-----------3------------------1-------------|

G:------------0-----------0------------2-----0-------------|

D:------------2-----------4------------2-----2-------------|

A:------------3-----------5------------0-----3-------------|

E:---------------------------------------------------------|

And did we tell you the name of the game, boy

 

D G G C C G G F# F# F

e:--------------------------|-----|-----|-----|-----|-------------------|

B:--------------------------|-----|-----|-----|-----|-------------------|

G:------------7-------------|-----|-----|-5-/-|-5-/-|-------------------|

D:------------7-------------|-5-/-|-5-/-|-5-/-|-5-/-|-5----5--4----4--3-|

A:------------5-------------|-5-/-|-5-/-|-3-/-|-3-/-|-5----5--4----4--3-|

E:--------------------------|-3-/-|-3-/-|-----|-----|-3----3--2----2--1-|

We call it riding the gravy train. Yeah...

 

 

Song Structure

Intro, V1, Ch, V2, Ch, V3, V4, Ch, Outro.

 

 

Outro Solo – play over Intro

Use this scale (play O’s)

 

x-x-x-O-O-O 12th

-----------

x-x-x-O-O-O 14th

x-x-x-x-O-O 15th

 

___________________________

http://tabs.foofighters.com

 

Return to my to my Foo Fighters tabs page

The Tablature is Copyright its respective owners.

Sign Up For My Newsletter
Subscribe | Unsubscribe

Site Map | Disclaimer | Privacy Policy | Media Kit | Submissions/Corrections

Website © 2000-2014 mattsmusicpage.com. All rights reserved.

Legal & DMCA: Matt's Music Page has been providing lyrics and tabs in a legal way, paying royalties each year to a few organizations. Then, all lyrics and tabs were removed from the site. Now, there's a new owner to the site, which purchased it August 26, 2014, and he is in negotiation to obtain licensing from BMI at the moment. If you have a specific DMCA request -- please do not hesitate to contact me via the contact button on top. I will do my very best to keep this site fully legal.

Get our toolbar!