Your One-Stop Source For
Music Lyrics
Bass and Guitar Tabs
and More...
>Music Lyrics Bass and Guitar Tabs

 

Tabs of Foo Fighters Songs

Learn To Read Tab
Chords Handbook
Corrections & Additions
Get Official Tab
Foo Fighters tabs @ 911Tabs

 

Good Grief

By Foo Fighters

Tabbed AltGuitar

Note: This is one of my few text tabs, most of mine are

in TabIt form. (This was extracted from a TabIt

file I wrote)

For More Really Cool, and Accurate Tab Type:

AltGuitar

In file search

 

Intro:

 

E :------------------|-------------------|----------------|

B :------------------|-------------------|----------------|

G :------------------|-------------------|6-9---6-9-6---9-|

D :----9-7-9-7-7-9-7-|0-0-9-7-9-7-7-9-7--|------------9---|

A :9-9---------------|-------------------|----------------|

E :------------------|-------------------|----------------|

 

Verse:

 

E :-------------------------------|-------------------------------|

B :-------------------------------|-------------------------------|

G :4-4-4-4-4-4-4-4-4-4-4-4-4-4-4-4|7-7-7-7-7-7-7-7-7-7-7-7-7-7-7-7|

D :4-4-4-4-4-4-4-4-4-4-4-4-4-4-4-4|7-7-7-7-7-7-7-7-7-7-7-7-7-7-7-7|

A :2-2-2-2-2-2-2-2-2-2-2-2-2-2-2-2|5-5-5-5-5-5-5-5-5-5-5-5-5-5-5-5|

E :-------------------------------|-------------------------------|

 

E :-------------------------------|-------------------------------|

B :-------------------------------|-------------------------------|

G :-------------------------------|-------------------------------|

D :4-4-4-4-4-4-4-4-4-4-4-4-4-4-4-4|7-7-7-7-7-7-7-7-7-7-7-7-7-7-7-7|

A :4-4-4-4-4-4-4-4-4-4-4-4-4-4-4-4|7-7-7-7-7-7-7-7-7-7-7-7-7-7-7-7|

E :2-2-2-2-2-2-2-2-2-2-2-2-2-2-2-2|5-5-5-5-5-5-5-5-5-5-5-5-5-5-5-5|

 

Chorus:

 

E :-------------------------------|-------------------------------|

B :-------------------------------|-------------------------------|

G :2-2-2-2-2-2-2-2----------------|----------------2-2-2-2-2-2-2-2|

D :2-2-2-2-2-2-2-2-2-2-2-2-2-2-2-2|4-4-4-4-4-4-4-4-2-2-2-2-2-2-2-2|

A :0-0-0-0-0-0-0-0-2-2-2-2-2-2-2-2|4-4-4-4-4-4-4-4-0-0-0-0-0-0-0-0|

E :----------------0-0-0-0-0-0-0-0|2-2-2-2-2-2-2-2----------------|

 

E :-------------------------------|-------------------------------|

B :-------------------------------|-------------------------------|

G :-------------------------------|2-2-2-2-2-2-2-2----------------|

D :2-2-2-2-2-2-2-2-4-4-4-4-4-4-4-4|2-2-2-2-2-2-2-2-2-3-2-3-2-3-2-3|

A :2-2-2-2-2-2-2-2-4-4-4-4-4-4-4-4|0-0-0-0-0-0-0-0-2-3-2-3-2-3-2-3|

E :0-0-0-0-0-0-0-0-2-2-2-2-2-2-2-2|----------------0-1-0-1-0-1-0-1|

 

Bridge:

 

E :----------------|----------------|-------------------------------|

B :----------------|----------------|-------------------------------|

G :----2-2-2-2-2-2-|----2-2-2-2-2-4-|----------------2-2-2-2-2-2-2-2|

D :----2-2-2-2-2-2-|----2-2-2-2-2-4-|4-4-4-4-4-4-4-4-2-2-2-2-2-2-2-2|

A :2-2-------------|2-2-------------|4-4-4-4-4-4-4-4-0-0-0-0-0-0-0-0|

E :----------------|----------------|2-2-2-2-2-2-2-2----------------|

 

E :-----------------------|

B :-----------------------|

G :-----------------------|

D :2-2-2-2-2-2-2-2--------|

A :2-2-2-2-2-2-2-2--------|

E :0-0-0-0-0-0-0-0--------|

 

 

Return to my to my Foo Fighters tabs page

The Tablature is Copyright its respective owners.

Sign Up For My Newsletter
Subscribe | Unsubscribe

Site Map | Disclaimer | Privacy Policy | Media Kit | Submissions/Corrections

Website © 2000-2014 mattsmusicpage.com. All rights reserved.

Legal & DMCA: Matt's Music Page has been providing lyrics and tabs in a legal way, paying royalties each year to a few organizations. Then, all lyrics and tabs were removed from the site. Now, there's a new owner to the site, which purchased it August 26, 2014, and he is in negotiation to obtain licensing from BMI at the moment. If you have a specific DMCA request -- please do not hesitate to contact me via the contact button on top. I will do my very best to keep this site fully legal.

Get our toolbar!

 

USA My old Kentucky home lyrics 1920s PC
$9.0
USA My old Kentucky home lyrics 1920s PC picture


Lyric Theater Stuart Florida circa 1940
$4.98
Lyric Theater Stuart Florida circa 1940 picture


Vintage 1960's Vinyl Record Holder Stand 40 DISK CAPACITY 33, 45, 78-RPM
$20.0
Vintage 1960's Vinyl Record Holder Stand 40 DISK CAPACITY 33, 45, 78-RPM picture


Get your kicks ROUTE 66 Song Lyrics metal sign for Biker motorcycle STURGIS fans
$12.99
Get your kicks ROUTE 66 Song Lyrics metal sign for Biker motorcycle STURGIS fans picture


1905 Ad Henry F Miller Sons Piano Co Boston Small Lyric Grand $650
$7.75
1905  Ad Henry F Miller Sons Piano Co Boston Small Lyric Grand $650 picture