Your One-Stop Source For
Music Lyrics
Bass and Guitar Tabs
and More...
Music Lyrics Bass and Guitar Tabs

 

Tabs of Foo Fighters Songs

Learn To Read Tab
Chords Handbook
Corrections & Additions
Get Official Tab
Foo Fighters tabs @ 911Tabs

 

Exhausted

Foo Fighters

 

 

Dropped-D tuning

 

Chords :

Asus2 - x 0 2 2 0 1

E/B - x 2 x 0 0 1

C - x 3 2 0 1 0

Am - x 0 2 2 1 0

Bb5 - x 1 3 3 x x

G - 5 5 5 x x x

 

Verse/Intro

-----------

Asus2 , E/B , C, Am, C, Am

 

 

Pre-Chorus

----------

Bb5 Am G

 

 

Chorus/Instrumental Section

G ---------------------------------|-5-5-5---

D --3--5--7--5--0-3-0-3-0-3-5--7~--|-5-5-5---

A --3--5--7--5--0-3-0-3-0-3-5--7~--|-------- <<--this part not

D --3--5--7--5--0-3-0-3-0-3-5--7~--|-------- <<--always played

F G A G D F D F D F G A C/G

 

Bridge/Interlude

---------------

Near the end of the verse Am is played loudly and repeatedly.

 

 

--------------------------------------------------------------------------------

Exhausted

Foo Fighters

 

 

dropped D tuning

 

Intro/Verse:

e:---------1------------|----------1------------|

B:---------3----3-----3-|----------3----3-----3-|

G:---------2-------2----|----------2-------2----|

D:-0----0---------------|-0----0----------------|

A:-0----0---------------|-2----2----------------|

D:-0----0---------------|-x----x----------------|

I'm not around that much. I'm

 

e:----------0------------|-----------0------------|

B:----------1----1-----1-|-----------1----1-----1-|

G:----------2-------2----|-2----2----2-------2----|

D:-x----x----------------|-2----2-----------------|

A:-3----3----------------|-0----0-----------------|

D:-3----3----------------|-x----x-----------------|

near exhausted

 

e:----------0------------|-----------0------------|

B:----------1----1-----1-|-----------1----1-----1-|

G:----------2-------2----|-2----2----2-------2----|

D:-x----x----------------|-2----2-----------------|

A:-3----3----------------|-0----0-----------------|

D:-3----3----------------|-x----x-----------------|

and lost.

 

 

Pre-Chorus:

e:-------------------------------------|-----------------------|

B:-------------------------------------|-----------------------|

G:-------------------------------------|-----------------------|

D:-8-8-8-8--8-8-8-8---7-7-7-7--7-7-7-7-|-5-----5---5---5---5---|

A:-8-8-8-8--8-8-8-8---7-7-7-7--7-7-7-7-|-5-----5---5---5---5---|

E:-8-8-8-8--8-8-8-8---7-7-7-7--7-7-7-7-|-5-----5---5---5---5---|

... and alone ...

 

 

 

Riff 2 (Chorus?)

e:------------------------------------------------------------|

B:------------------------------------------------------------|

G:------------------------------------------------------------|

D:------------------------------------------------------------|

A:-0---3---5---7---3---0---3---0---3---0----------------------|

E:-0---3---5---7---3---0---3---0---3---0----4---5---7^~~~~--7-|

 

 

A few tips: Use your index finger on the second chord, middle finger

on the third chord, middle finger on the fourth chord, and

middle finger on the next two chords. These are the

fingerings that I think work best with the TAB.

 

 

LYRICS:

 

I'm not around that much.

I'm near exhausted and lost.

If it could be undone,

Will it have cost it?

It's torn and alone

 

Knowing the way we strain

And tear, exhausted, and fall.

What if today I'd stayed in bed,

And was bored? Oh, we've gone

And fall.

 

After bliss is gone in bed,

Use caution. It's gone.

Even the breeze that's flowing.

There is caustic. And I talked.

And I missed it.

 

 

Return to my to my Foo Fighters tabs page

The Tablature is Copyright its respective owners.

Sign Up For My Newsletter
Subscribe | Unsubscribe

Site Map | Disclaimer | Privacy Policy | Media Kit | Submissions/Corrections

Website © 2000-2014 mattsmusicpage.com. All rights reserved.

Get our toolbar!