Your One-Stop Source For
Music Lyrics
Bass and Guitar Tabs
and More...
Music Lyrics Bass and Guitar Tabs

 

Tabs of Foo Fighters Songs

Learn To Read Tab
Chords Handbook
Corrections & Additions
Get Official Tab
Foo Fighters tabs @ 911Tabs

 

Everlong

Foo Fighters

 

 

Dropped-D tunning

 

Intro Clean

e|--------------------------------------------------------------------------

B|--------------------------------------------------------------------------

G|--------------------------------------------------------------------------

D|-----11-11---11--11-11--11-11-11-------11-11---11--11-11--11-11-11--------

A|-----9--9----9---9--9---9--9--9--------9--9----9---9--9---9--9--9---------

D|-0-0-------0-----0--0---0--0--0--0-9-9-------9-----9--9---9--9--9--9------

 

---------------------------------------------------------------------------

---------------------------------------------------------------------------

---------------------------------------------------------------------------

------7---7-7-7-----11-11--11--11-11-11-11-11-11-11-11---------------------

------5---5-5-5-----9--9---9---9--9--9--9--9--9--9--9----------------------

--5-5---5-------9-9------9-----9--9--9--9--9--9--9--9----------------------

 

Distortion

------------------------------------------------------------|

------------------------------------------------------------|

----11-----11-11-11-----11---7------11-11-11-11-11-11-11-11-|

----11-----11-11-11-----11---7------11-11-11-11-11-11-11-11-|

----9------9--0--9------9--0-5------9--9--9--9--9--9--9--9--|

-----------------9------9--0-5------9--9--9--9--9--9--9--9--|

Bridge

 

Bridge

e|-----------------------------------

B|-----------------------------------

G|-9---9---9---9---9---9---9--11-9---

D|-11--11--11--11--11--11--11-11-11-- x2

A|-9---9---9---9---9---9---9--9--9---

D|-----------------------------------

 

--------------------------------------------------|

--------------------------------------------------|

--7--7--7--7--9---9---9--11-9---9---9---9--11-9---|

--9--9--9--9--11--11--11-11-11--11--11--11-11-11--|

--7--7--7--7--9---9---9--9--9---9---9---9--9--9---|

--------------------------------------------------|

 

 

Chorus

e|---------------------------------------------------

B|---------------------------------------------------

G|-11-11-11-11-11-11-11-11-11-11-11-11-11-11-11-11---

D|-11-11-11-11-11-11-11-11-11-11-11-11-11-11-11-11---

A|-9--9--9--9--9--9--9--9--9--9--9--9--9--9--9--9----

D|-0--0--0--0--0--0--0--0--0--0--0--0--0--0--0--0----

1. He ---- llo I've

2. To ---- night I

3. Co---me down And

4. Sl---ow how You

5. Breathe out So

6. And---- now I

 

----------------------------------------------------

----------------------------------------------------

--11-11-11-11-11-11-11-11-11-11-11-11-11-11-11-11---

--11-11-11-11-11-11-11-11-11-11-11-11-11-11-11-11---

--9--9--9--9--9--9--9--9--9--9--9--9--9--9--9--9----

--9--9--9--9--9--9--9--9--9--9--9--9--9--9--9--9----

1. waited here for you

2. throw my self into

3. waste away with me

4. wanted it to be

5. I can breathe you in

6. know you've always been

 

------------------------------------------------------------------|

------------------------------------------------------------------|

--7-7-7-7-7-7-7-7-11-11-11-11-11-11-11-11-11-11-11-11-11-11-11-11-|

--7-7-7-7-7-7-7-7-11-11-11-11-11-11-11-11-11-11-11-11-11-11-11-11-|

--5-5-5-5-5-5-5-5-9--9--9--9--9--9--9--9--9--9--9--9--9--9--9--9--|

--5-5-5-5-5-5-5-5-9--9--9--9--9--9--9--9--9--9--9--9--9--9--9--9--|

1. e---ver---long (Course 2)

2. And out of the red, out of her head she sang (Bridge x4, Course 3

3. Down with me Course 4)

4. I'm over my head, out of her head she sang (Riff 1->3, Verse

Bridge x3, Course 5)

5. hold you in (Course 6)

6. And out of your head, out of my head I sang (Riff 1->3, Verse

Intro 1st line,

Bridge (no dist.) x3

Riff 1, verse)

 

Riff

e|-------------------------------------------|

B|-------------------------------------------|

G|-------------------------------------------|

D|--------------------------------7----------|

A|-4-4-4-5-5-5-7-7-7-9-9-9-9-10-9-7~~~~~-----|

D|--------------------------------7----------|

1. And

2. I wonder When I sing

3. along with you

 

Verse

e|-------------------------------------------------------------------------

B|-------------------------------------------------------------------------

G|-------------4-4-4-4-4-4-4-----------------7--7--7-7-7-7--7-7--7-7-7-----

D|-------------4-4-4-4-4-4-4--5--5-5--5-5-5--7--7--7-7-7-7--7-7--7-7-7-----

A|-------------2-2-2-2-2-2-2--5--5-5--5-5-5--5--5--5-5-5-5--5-5--5-5-5-----

D|----------------------------5--5-5--5-5-5--0--0--0-0-0-0--0-0--0-0-0-----

If everything could ever feel this real forever

 

 

-------------------------------------------------------------------------

-------------------------------------------------------------------------

-------------4-4-4-4-4-4-4-----------------7--7--7-7-7-7--7-7--7-7-7-----

-------------4-4-4-4-4-4-4--5--5-5--5-5-5--7--7--7-7-7-7--7-7--7-7-7-----

-------------2-2-2-2-2-2-2--5--5-5--5-5-5--5--5--5-5-5-5--5-5--5-5-5-----

----------------------------5--5-5--5-5-5--0--0--0-0-0-0--0-0--0-0-0-----

If anything could ever be this good again

 

--------------------------------------------------------------------------

--------------------------------------------------------------------------

------------4-4-4-4-4-4-4-----------------7--7--7-7-----------------------

------------4-4-4-4-4-4-4--5--5-5--5-5-5--7--7--7-7--7--7-7--7-7-7--------

------------2-2-2-2-2-2-2--5--5-5--5-5-5--5--5--5-5--7--7-7--7-7-7--------

---------------------------5--5-5--5-5-5--0--0--0-0--7--7-7--7-7-7--------

The only thing I'll ever ask of you You've got to promise not to

stop when I say

 

-------------------------------|

-------------------------------|

-------------------------------|

---5-5-5--5-5-5--5-5-5--5-5-5--|

---5-5-5--5-5-5--5-5-5--5-5-5--|

---5-5-5--5-5-5--5-5-5--5-5-5--|

when She sang

 

 

--------------------------------------------------------------------------------

Everlong

Foo Fighters

 

Drop D tuning

 

the intro-type riff: (all down strums)

e|----------------------------------------------

B|----------------------------------------------

G|---------11---11-11---11-11---11---11-11-11---

D|---------11---11-11---11-11---11---11-11-11---

A|---------9----9--9----9--9----9----9--9--9----

E|-----0-0----0-------0-------0----0----------0-

hello

 

e|----------------------------------------------

B|----------------------------------------------

G|---------11---11-11---11-11---11---11-11-11---

D|---------11---11-11---11-11---11---11-11-11---

A|---------9----9--9----9--9----9----9--9--9----

E|-----9-9----9-------9-------9----9----------9-

I've waited here for you

 

e|-------------------------------------------------------

B|-------------------------------------------------------

G|-------------7-------------7---------11------------11--

D|-------------7-------------7---------11------------11--

A|-------------5-------------5---------9-------------9---

E|----5--5--5----5--5--5--5----5/9--9-----9--9--9--9----9

everlong

 

e|---------------------------------

B|--------------------------------- repeat

G|-----------11--------------11---- a

D|-----------11--------------11---- whole

A|-----------9---------------9----- crapload

E|-----9--9------9--9--9--9-----9--

 

 

chorus-type riff of fun:

e|--------------------------------------------------------------

B|--------------------------------------------------------------

G|-----6-6-6--7-7-7--9-9-9--11-11-11--11-12-13------------------

D|-----x-x-x--x-x-x--x-x-x--x--x--x---x--x--x----7---7-7--7-7-7-

A|-----4-4-4--5-5-5--7-7-7--9--9--9---9--10-11---7---7-7--7-7-7-

E|-----0-0-0--0-0-0--0-0-0--0--0--0---0--0--0----7---7-7--7-7-7-

repeat once (this is the "and I wonder part")

 

e|------------------------------------------------------------

B|------------------------------------------------------------

G|-----4---4-4--4-4-4------------------7---7-7--7-7-7--7--7-7-

D|-----4---4-4--4-4-4--5---5-5--5-5-5--7---7-7--7-7-7--7--7-7-

A|-----2---2-2--2-2-2--5---5-5--5-5-5--5---5-5--5-5-5--5--5-5-

E|---------------------5---5-5--5-5-5--0---0-0--0-0-0--0--0-0-

repeat once

if anything can ever feel this real forever

if anything can ever be this good again

 

e|------------------------------------------------------------

B|-------------------------------------------------------------

G|-----4---4-4--4-4-4------------------7-7-7-7-----------------

D|-----4---4-4--4-4-4--5---5-5--5-5-5--7-7-7-7-7-7--7-7-7--7-7-

A|-----2---2-2--2-2-2--5---5-5--5-5-5--5-5-5-5-7-7--7-7-7--7-7-

E|---------------------5---5-5--5-5-5--0-0-0-0-7-7--7-7-7--7-7-

the ony thing I'll ever ask of you you gotta promise

 

e|---------------------------------------------------

B|---------------------------------------------------

G|---------------------------------------------------

D|-----5--5-5--5-5-5---5--5-5--5-5-5---5--5-5--5-5-5-

A|-----5--5-5--5-5-5---5--5-5--5-5-5---5--5-5--5-5-5-

E|-----5--5-5--5-5-5---5--5-5--5-5-5---5--5-5--5-5-5-

not to stop when I say when she sang

(if end of song just let ring)

 

 

Return to my to my Foo Fighters tabs page

The Tablature is Copyright its respective owners.

Sign Up For My Newsletter
Subscribe | Unsubscribe

Site Map | Disclaimer | Privacy Policy | Media Kit | Submissions/Corrections

Website © 2000-2014 mattsmusicpage.com. All rights reserved.

Legal & DMCA: Matt's Music Page has been providing lyrics and tabs in a legal way, paying royalties each year to a few organizations. Then, all lyrics and tabs were removed from the site. Now, there's a new owner to the site, which purchased it August 26, 2014, and he is in negotiation to obtain licensing from BMI at the moment. If you have a specific DMCA request -- please do not hesitate to contact me via the contact button on top. I will do my very best to keep this site fully legal.

Get our toolbar!