Your One-Stop Source For
Music Lyrics
Bass and Guitar Tabs
and More...
Music Lyrics Bass and Guitar Tabs

 

Tabs of Foo Fighters Songs

Learn To Read Tab
Chords Handbook
Corrections & Additions
Get Official Tab
Foo Fighters tabs @ 911Tabs

 

Down In The Park

Foo Fighters

 

 

Chords :

A B5 Ab5 A5 G5 E

E|--0--| |-----| |-----| |-----| |-----| |-----|

B|--2--| |-----| |-----| |-----| |-----| |-----|

G|--2--| |--4--| |--6--| |--0--| |--0--| |--0--|

D|--2--| |--4--| |--6--| |--7--| |--5--| |--2--|

A|--0--| |--2--| |--4--| |--7--| |--5--| |--2--|

E|-----| |-----| |-----| |--5--| |--3--| |--0--|

 

The First Part Goes:

 

A A A A A A A A A A B B B B B B B B B B Ab Ab Ab Ab Ab Ab Ab Ab Ab Ab

then repeat

 

The next part is:

A5..............G5................E................

and repeat

 

 

Then do the first part palm muted then do the second part again

then do the first part real fast.

 

--------------------------------------------------------------------------------

Down In The Park

Foo Fighters

 

-----------------------------------------------------------------------

-----------------------------------------------------------------------

--5-5-5-5-5-5-5-5-/--7-7-7-7-7-7-7-7-----------------------------------

--5-5-5-5-5-5-5-5-/--7-7-7-7-7-7-7-7/--8-8-8-8-8-8-8-8-/--3-3-3-3-3-3-3

--3-3-3-3-3-3-3-3-/--5-5-5-5-5-5-5-5/--8-8-8-8-8-8-8-8-/--3-3-3-3-3-3-3

------------------------------------/--6-6-6-6-6-6-6-6-/--1-1-1-1-1-1-1

pm.....................................................................

 

-----------------------------------------------------------------------

-----------------------------------------------------------------------

--5-5-5-5-5-5-5-5-/--7-7-7-7-7-7-7-7-----------------------------------

--5-5-5-5-5-5-5-5-/--7-7-7-7-7-7-7-7--7-7-7-7-7-7-7-7------------------

--3-3-3-3-3-3-3-3-/--5-5-5-5-5-5-5-5--7-7-7-7-7-7-7-7------------------

--------------------------------------5-5-5-5-5-5-5-5------------------

pm.....................................................................

 

THEN W/DISTORTION

 

-----------------------------------------------------------------------

-----------------------------------------------------------------------

--5-5-5-5-5-5-5-5-/--7-7-7-7-7-7-7-7-----------------------------------

--5-5-5-5-5-5-5-5-/--7-7-7-7-7-7-7-7/--8-8-8-8-8-8-8-8-/--3-3-3-3-3-3-3

--3-3-3-3-3-3-3-3-/--5-5-5-5-5-5-5-5/--8-8-8-8-8-8-8-8-/--3-3-3-3-3-3-3

------------------------------------/--6-6-6-6-6-6-6-6-/--1-1-1-1-1-1-1

 

-----------------------------------------------------------------------

-----------------------------------------------------------------------

--5-5-5-5-5-5-5-5-/--7-7-7-7-7-7-7-7-----------------------------------

--5-5-5-5-5-5-5-5-/--7-7-7-7-7-7-7-7--7-7-7-7-7-7-7-7------------------

--3-3-3-3-3-3-3-3-/--5-5-5-5-5-5-5-5--7-7-7-7-7-7-7-7------------------

--------------------------------------5-5-5-5-5-5-5-5------------------

 

Return to my to my Foo Fighters tabs page

The Tablature is Copyright its respective owners.

Sign Up For My Newsletter
Subscribe | Unsubscribe

Site Map | Disclaimer | Privacy Policy | Media Kit | Submissions/Corrections

Website © 2000-2014 mattsmusicpage.com. All rights reserved.

Legal & DMCA: Matt's Music Page has been providing lyrics and tabs in a legal way, paying royalties each year to a few organizations. Then, all lyrics and tabs were removed from the site. Now, there's a new owner to the site, which purchased it August 26, 2014, and he is in negotiation to obtain licensing from BMI at the moment. If you have a specific DMCA request -- please do not hesitate to contact me via the contact button on top. I will do my very best to keep this site fully legal.

Get our toolbar!

 

Hard Rock Pin Las Vegas 4th of july red white and blue guitar
$5.0
Hard Rock Pin Las Vegas 4th of july red white and blue guitar picture


Hard Rock Pin Hollywood Fl Bell Girl with dice luggage and guitar
$5.0
Hard Rock Pin Hollywood Fl Bell Girl with dice luggage and guitar picture


Hard Rock Pin Las Vegas King of Clubs Guitar rare only 3 lines of info on back
$5.0
Hard Rock Pin Las Vegas King of Clubs Guitar rare only 3 lines of info on back picture


Hard Rock Pin Edmonton guitar pin
$5.0
Hard Rock Pin Edmonton guitar pin picture


Lladro Guitar Boy #4614 - Beautiful Piece of Lladro
$109.0
Lladro Guitar Boy #4614 - Beautiful Piece of Lladro picture