Your One-Stop Source For
Music Lyrics
Bass and Guitar Tabs
and More...
Music Lyrics Bass and Guitar Tabs

 

Tabs of Foo Fighters Songs

Learn To Read Tab
Chords Handbook
Corrections & Additions
Get Official Tab
Foo Fighters tabs @ 911Tabs

Gimme Stitches-Foo Fighters

Tabbed by TheOriginalAxeman

 

Cr-Crash

Sp-Splash

CR-Crash/Ride

Rd-Ride

Hh-Hi-Hat

Md-Mid Tom

Fl-Floor Tom

Sn-Snare

Bs-Bass

 

Intro:

Cr|----------------|----------------|----------------|----------------|

Hh|x-xxx-xxx-xxx-xx|x-xxx-xxx-xxx-xx|x-xxx-xxx-xxx-xx|x-xxx-xxx-xxx-xx|

Sn|----------------|----------------|----------------|----------------|

Bs|----------------|----------------|----------------|----------------|

 

Cr|----------------|------------x---|x---------------|----------------|

Hh|x-xxx-xxx-xxx-xx|x-xxx-xx--------|--0-x-x-x-x-x-x-|x-0-x-x-x-x-x-x-|

Sn|----------------|--------o-o-----|----o-------o---|----o-------o---|

Bs|----------------|--------o-o-----|o-------o-o-----|o-------o-o-----|

 

Cr|----------------|------------x---|----------------|----------------|

Sp|----------------|----------------|x---------------|----------------|

Hh|x-0-x-x-x-x-x-x-|----------------|--0-x-x-x-x-x-x-|x-0-x-x-x-x-x-x-|

Sn|----o-------o---|ooooo-oo----o---|----o-------o---|----o-------o---|

Bs|o-------o-o-----|o-------o-o-----|o-------o-o-----|o-------o-o-----|

 

Cr|----------------|----------------|

Hh|x-0-x-x-x-x-x-x-|----------------|

Sn|----o-------o---|ooooo-ooooo-oooo|

Bs|o-------o-o-----|o---o---o---o---|

 

Verse:

Cr|x---------------|----------------|----------------|----------------|

Hh|--0-x-x-x-x-x-x-|x-0-x-x-x-x-x-x-|x-0-x-x-x-x-x-x-|x-0-x-x-x-x-----|

Sn|----o-------o---|----o-------o---|----o-------o---|----o-------o-oo|

Bs|o-------o-o-----|o-------o-o-----|o-------o-o-----|o-------o-o-----|

 

Cr|x---------------|----------------|x---------------|------------x---|

Hh|--0-x-x-x-x-x-x-|x-0-x-x-x-x-x-x-|x-0-x-x-x-x-x-x-|x-0-x-x-x-x-x---|

Sn|----o-------o---|----o-------o---|----o-------o---|--o-o---o-------|

Bs|o-------o-o-----|o-------o-o-----|o-------o-o-----|o-------o-o-----|

 

Cr|x---------------|----------------|x---------------|----------------|

Hh|--0-x-x-x-x-x-x-|x-0-x-x-x-x-x-x-|--0-x-x-x-x-x-x-|x-0-x-x-x-x-----|

Sn|----o-------o---|----o-------o---|----o-------o---|----o-------o-oo|

Bs|o-------o-o-----|o-------o-o-----|o-------o-o-----|o-------o-o-----|

 

Cr|x---------------|----------------|x-------x-------|x---------------|

Hh|--0-x-x-x-x-x-x-|x-0-x-x-x-x-x-x-|----------------|----------------|

Sn|----o-------o---|----o-------o-oo|----o-oo----o-oo|----o-oooo--ooo-|

Bs|o-------o-o-----|o-------o-o-----|o-------o-o-----|o-----------o---|

 

Chorus:

Cr|x---------------|----------------|----------------|------------x---|

CR|----------------|x---------------|x---------------|x---------------|

Rd|--x-x-x-x-x-x-x-|--x-x-x-x-x-x-x-|--x-x-x-x-x-x-x-|--x-x-x---------|

Sn|----o-------o---|----o-------o---|----o-------o---|----o---oo--o-oo|

Bs|o-------o-o-----|o-------o-o-----|o-------o-o-----|o-------o-o-----|

 

Cr|x---------------|----------------|----------------|----------------|

CR|----------------|x---------------|x---------------|----------------|

Rd|--x-x-x-x-x-x-x-|--x-x-x-x-x-x-x-|--x-x-x-x-x-x-x-|----------------|

Sn|----o-------o---|----o-------o---|----o-------o---|--o-o-----o-ooo-|

Bs|o-------o-o-----|o-------o-o-----|o-------o-o-----|o-------o-------|

 

Bridge:

Cr|x---------------|------------x---|

Hh|----x---x---x---|x---x-----------|

Sn|----o-------o---|----o---o-------|

Bs|o-------o-o-----|o-------o-------|

 

Verse:

Cr|x---------------|----------------|----------------|----------------|

Hh|--0-x-x-x-x-x-x-|x-0-x-x-x-x-x-x-|x-0-x-x-x-x-x-x-|x-0-x-x-x-x-----|

Sn|----o-------o---|----o-------o---|----o-------o---|----o-------o-oo|

Bs|o-------o-o-----|o-------o-o-----|o-------o-o-----|o-------o-o-----|

 

Cr|x---------------|----------------|x---------------|----------------|

Hh|--0-x-x-x-x-x-x-|x-0-x-x-x-x-----|--0-x-x-x-x-x-x-|x-0-x-x-x-x-x-x-|

Sn|----o-------o---|----o-------o-oo|----o-------o---|----o-------o---|

Bs|o-------o-o-----|o-------o-o-----|o-------o-o-----|o-------o-o-----|

 

Cr|----------------|----------------|----------------|----------------|

Hh|x-0-x-x-x-x-x-x-|x-0-x-x-x-x-x-0-|x-x-x-x-x-x-x-0-|x-x-x-x-x-x-----|

Sn|----o-------o---|----o-------o---|----o-------o---|----o-------o-oo|

Bs|o-------o-o-----|o-------o-o-----|o-------o-o-----|o-------o-o-----|

 

Cr|x-------x-------|x---------------|

Hh|----------------|-----------0----|

Sn|----o-oo----o-oo|----o-oooo--ooo-|

Bs|o-------o-o-----|o-----------o---|

 

Chorus:

Cr|x---------------|----------------|----------------|----------------|

CR|----------------|x---------------|x---------------|x---------------|

Rd|--x-x-x-x-x-x-x-|--x-x-x-x-x-x-x-|--x-x-x-x-x-x-x-|--x-x-x-x-x-x---|

Sn|----o-------o---|----o-------o---|----o-------o---|----o-----o-o-oo|

Bs|o-------o-o-----|o-------o-o-----|o-------o-o-----|o-------o-o-----|

 

Cr|x---------------|----------------|----------------|----------------|

CR|----------------|x---------------|x---------------|x---------------|

Rd|--x-x-x-x-x-x-x-|--x-x-x-x-x-x-x-|--x-x-x-x-x-x-x-|--x-x-x---------|

Md|----------------|----------------|----------------|------------oooo|

Sn|----o-------o---|----o-------o---|----o-------o---|----o---oooo----|

Bs|o-------o-o-----|o-------o-o-----|o-------o-o-----|o---------------|

 

Bridge:

Cr|x---x---x---x---|x---x---x---x---|x---x---x---x---|x---x---x---x---|

Sn|----o-------o---|----o-------o---|----o-------o---|----o-----o-o---|

Bs|o-------o-o-----|o-------o-o-----|o-------o-o-----|o-------o-o-o---|

 

Cr|x---------------|x---------------|x---------------|x---------------|

Hh|----x---x---x---|----x---x---x---|----x---x---x---|----x---x---x---|

Rd|------x---x---x-|------x---x---x-|------x---x---x-|------x---x---x-|

Sn|----o-------o---|----o-------o---|----o-------o---|----o-------o---|

Bs|o-------o-o-----|o-------o-o-----|o-------o-o-----|o-------o-o-----|

 

Cr|x---------------|----------------|

Hh|----x---x---x---|----------------|

Rd|------x---x---x-|----------------|

Md|----------------|------------oooo|

Sn|----o-------o---|----o---oooo----|

Bs|o-------o-o-----|o---------------|

 

Outro:

Cr|x---x---x---x---|x---x---x---x---|x---x---x---x---|x---x---x---x---|

Sn|----o----o--o---|----o----o--o---|----o----o--o---|----o-oo--oo----|

Bs|o-------o-o-----|o-------o-o-----|o-------o-o-----|o-------o-o-----|

 

Cr|x---x---x---x---|x---x---x---x---|x---x---x---x---|x---x---x---x---|

Sn|----o----o--o---|----o----o--o---|----o----o--o---|ooooo----ooo-ooo|

Bs|o-------o-o-----|o-------o-o-----|o-------o-o-----|o-------o---o---|

 

Cr|x---x---x---x---|x---x---x---x---|x---x---x---x---|x---x---x---x---|

Sn|----o----o--o---|----o----o--o---|----o----o--o---|----o-------ooo-|

Bs|o-------o-o-----|o-------o-o-----|o-------o-o-----|o-------o-o-----|

 

Cr|x---x---x---x---|x---x---x---x---|x---x---x---x---|x---x---x---x---|

Sn|----o----o--o---|----o----o--o---|----o----o--o---|----o-----o-o-o-|

Bs|o-------o-o-----|o-------o-o-----|o-------o-o-----|o-------o-o-o-o-|

 

Cr|x---x---x---x---|x---x---x---x---|x---x---x---x---|x---x-----------|

Sn|----o-------o---|----o-------o---|----o-------o---|-oooo--ooooooooo|

Bs|o-------o-o-----|o-------o-o-----|o-------o-o-----|o-------o---o---|

 

Cr|x---------------|x---------------|x---------------|x---------------|

Hh|----x---x---x---|----x---x---x---|----x---x---x---|----x---x-------|

Rd|------x---x---x-|------x---x-----|------x---x---x-|------x---x-----|

Sn|----o-------o---|----o-------o-oo|----o-------o---|----o-------oooo|

Bs|o-------o-o-----|o-------o-o-----|o-------o-o-----|o-------o-o-----|

 

Cr|x---------------|x---------------|x---------------|x-x-x-----------|

Hh|----x---x---x---|----x---x---x---|----x---x---x---|----------------|

Rd|------x---x---x-|------x---x-----|------x---x---x-|----------------|

Md|----------------|----------------|----------------|--------------o-|

Fl|----------------|----------------|----------------|---------------o|

Sn|----o-------o---|----o-------oo--|----o-------o---|--o---o-o-o-oo--|

Bs|o-------o-o-----|o-------o-o---o-|o-------o-o-----|o-------o---o---|

 

Cr|x---x---x---x---|x---x---x---x---|x---x---x---x---|x---x-------x---|

Sn|----o-------o---|----o-------o-oo|----o-------o---|----o-----------|

Bs|o-------o-o-----|o-------o-o-----|o-------o-o-----|o-------o-o-o---|

 

 

Return to my Foo Fighters drum tabs page

The Tablature is Copyright its respective owners.

Sign Up For My Newsletter
Subscribe | Unsubscribe

Site Map | Disclaimer | Privacy Policy | Media Kit | Submissions/Corrections

Website © 2000-2014 mattsmusicpage.com. All rights reserved.

Legal & DMCA: Matt's Music Page has been providing lyrics and tabs in a legal way, paying royalties each year to a few organizations. Then, all lyrics and tabs were removed from the site. Now, there's a new owner to the site, which purchased it August 26, 2014, and he is in negotiation to obtain licensing from BMI at the moment. If you have a specific DMCA request -- please do not hesitate to contact me via the contact button on top. I will do my very best to keep this site fully legal.

Get our toolbar!

 

Starbucks You Are Here Coffee Mug/Cup KENTUCKY - Horses, Banjo, Blue, White
$19.99
Starbucks You Are Here Coffee Mug/Cup KENTUCKY - Horses, Banjo, Blue, White picture


KNOWLES ROCKWELL HERITAGE "THE BANJO PLAYER" FIRST EDITION 1989 PLATE COA
$5.99
KNOWLES ROCKWELL HERITAGE


Vintage Postcard 1981 Disney World Banjo Kings Main Street USA 1981 Postmark
$4.99
 Vintage Postcard 1981 Disney World Banjo Kings Main Street USA 1981 Postmark picture


Banjo Barometer With Thermometer Hygrometer 490mm
$84.76
Banjo Barometer With Thermometer Hygrometer 490mm picture


ANTIQUE JAPANESE NIPPON FIGURINE SET OF 3 WOMEN GEISHA PLAYING DRUM BANJO FAN
$24.0
ANTIQUE JAPANESE NIPPON FIGURINE SET OF 3 WOMEN GEISHA PLAYING DRUM BANJO FAN picture