Your One-Stop Source For
Music Lyrics
Bass and Guitar Tabs
and More...
>Music Lyrics Bass and Guitar Tabs

 

The Foo Fighters Bass Tabs Are Below

Learn To Read Tab
Chords Handbook
Corrections & Additions
Get Official Tab
Foo Fighters tabs @ 911Tabs

Dear Rosemary - Foo Fighters

Leave a comment if you find a mistake

Intro

G----------------------------------|

D----------------------------------|

A--2-2-2-2-2-----------------------|

E------------5-5-5-3-3-3-3-3-0-0-0-| X4

 

Verse

G-------------------------------------------------------------|

D-------------------------------------------------------------|

A--2----2-0----0------------0--2----2-0---0-------------------|

E---------------3----3-0--------------------3----3--0-0-0-0---|

 

G------------------------------------------------------------|

D------------------------------------------------------------|

A--2----2-0----0------------0--2----2-0---0--------------0---|

E----------------3----3-0--------------------3----3--0-------|

 

G-------------------------------------------------------------|

D-------------------------------------------------------------|

A--2----2-0----0------------0--2----2-0---0-------------------|

E---------------3----3-0--------------------3----3--0-0-0-0---|

 

G------------------------------------------------------------------|

D------------------------------------------------------------------|

A--2----2/12---12-------------12--14----14-12--12------------------|

E----------------15----15--12--------------------15----15-12-------| X2

 

Pre-Chorus

G------------------------------------------------------|

D------------------------------------------------------|

A--2---2-0---0-2---2-0---0-2---2-0---0-2-2-2-2-2-2-2-2-|

E------------------------------------------------------|

 

Chorus

G--------------------------------------|

D--------------------------------------|

A--------------------------------------|

E--33333333-55555555-77777777-55555555-| X2

 

G--------------------|

D--------------------|

A--------------------|

E--33333333-55555555-|

 

G----------------------------------|

D----------------------------------|

A--2-2-2-2-2-----------------------|

E------------5-5-5-3-3-3-3-3-0-0-0-| X6

 

Verse

Pre-Chorus

 

Chorus

 

Bridge

G--------------------------------------|

D--------------------------------------|

A--------------------------------------|

E--33333333-55555555-77777777-55555555-| X3

 

G--------------------------------------|

D--------------------------------------|

A--------------------------------------|

E-33333333-00000000-00000000-000000000-|

 

Chorus (only last Part)

G----------------------------------|

D----------------------------------|

A--2-2-2-2-2-----------------------|

E------------5-5-5-3-3-3-3-3-0-0-0-| X8

 

Outro

G------------------------------------------------------------|

D------------------------------------------------------------|

A--2----2-0----0------------0--2----2-0---0------------------|

E----------------3----3-0--------------------3----3--0-0-0-0-|

 

G------------------------------------------------------------|

D------------------------------------------------------------|

A--2----2-0----0------------0--2----2-0---0---------------0--|

E----------------3----3-0--------------------3----3--0-------|

 

G----------------------|

D----------------------|

A--2----2-0----0-------|

E----------------3-----|

 

Tabbed By Bobert5

Click here to return to my Foo Fighters Bass Tabs page

The Tablature is Copyright its respective owners.

Sign Up For My Newsletter
Subscribe | Unsubscribe

Site Map | Disclaimer | Privacy Policy | Media Kit | Submissions/Corrections

Website © 2000-2014 mattsmusicpage.com. All rights reserved.

Legal & DMCA: Matt's Music Page has been providing lyrics and tabs in a legal way, paying royalties each year to a few organizations. Then, all lyrics and tabs were removed from the site. Now, there's a new owner to the site, which purchased it August 26, 2014, and he is in negotiation to obtain licensing from BMI at the moment. If you have a specific DMCA request -- please do not hesitate to contact me via the contact button on top. I will do my very best to keep this site fully legal.

Get our toolbar!

 

Rolling Stones Voodoo Lounge World Tour T-Shirt Large
$9.99
Rolling Stones Voodoo Lounge World Tour T-Shirt Large picture


Zippo ZO28630 Rolling Stones Black Matte Measures 2 1/4" x 1 7/16". Features win
$23.56
Zippo ZO28630 Rolling Stones Black Matte Measures 2 1/4


Carlton Cards Heirloom: The Rolling Stones "Satisfaction" Christmas Ornament
$12.5
Carlton Cards Heirloom: The Rolling Stones


Rolling Stones - Zippo Lighter Brand New
$19.95
Rolling Stones - Zippo Lighter Brand New picture


The Rolling Stones Print 8x10
$6.75
The Rolling Stones Print  8x10  picture