Your One-Stop Source For
Music Lyrics
Bass and Guitar Tabs
and More...
>Music Lyrics Bass and Guitar Tabs

 

The Foo Fighters Bass Tabs Are Below

Learn To Read Tab
Chords Handbook
Corrections & Additions
Get Official Tab
Foo Fighters tabs @ 911Tabs

Foo Fighters - Cheer Up Boys Your Makeup Is Running Bass Tabs

 

Intro

G|------------------|

D|------------------|

A|----045700000000--| x3

E|0457--------------|

 

G|--------|

D|--------|

A|--------|

E|22255555|

 

Verse 1

G|--------------------------------------|

D|-------------------7-7-----7----------|

A|--7-7-----------20-----045--45-5h7-97-|

E|0-----024-024-04----------------------|

 

G|-------------------------------------|

D|-------------------7-7-----7------5--|

A|--7-7------2--0240-----045--45-5h7-7-|

E|0-----024-4-4------------------------|

 

G|-----------------------------------------|

D|------------9----911--7-7-----7-------5--|

A|--7-75711-11-1112---0-----045---45-5h7-7-|

E|0----------------------------------------|

 

G|-------------------------------------|

D|-------------------7-7---------------|

A|--7-7-----------20-----045-545-545-5-|

E|0-----024-024-04---------------------|

 

Prechorus

G|------------------|

D|------------------|

A|----045700000000--| x3

E|0457--------------|

 

Chorus

G|-------------------------------------|

D|-------------------------------------|

A|-----------------55510-1010127-7-777-|

E|2225-5570-00-000---------------------|

 

G|----------------------------|

D|----------------------------|

A|-----------------55510-1010-|

E|2225-5570-00-000------------|

 

Verse 2

G|--------------------------------------|

D|-------------------7-7-----7----------|

A|--7-7-----------20-----045--45-5h7-97-|

E|0-----024-024-04----------------------|

 

G|-------------------------------------|

D|-------------------7-7-----7------5--|

A|--7-7------2--0240-----045--45-5h7-7-|

E|0-----024-4-4------------------------|

 

G|-----------------------------------------|

D|------------9----911--7-7-----7-------5--|

A|--7-75711-11-1112---0-----045---45-5h7-7-|

E|0----------------------------------------|

 

G|-------------------------------------|

D|-------------------7-7---------------|

A|--7-7-----------20-----045-545-545-5-|

E|0-----024-024-04---------------------|

 

Prechorus

G|------------------|

D|------------------|

A|----045700000000--| x3

E|0457--------------|

 

Chorus

G|--------------------------------------|

D|--------------------------------------|

A|-----------------55510-1010127-7-777--| x2

E|2225-5570-00-000----------------------|

 

Break

G|----------------------------------------------------------------|

D|----------------------------------------------------------------|

A|----------------------------------------------------------------|

E|0-0-0-0-2-2-2-2-4-4-4-4-5-5-5-5-3-3-3-3-2-2-2-2-0-0-0-5-0-0-0-0-|

 

G|----------------------------------------------------------------|

D|----------------------------------------------------------------|

A|----------------------------------------------------------------|

E|000000002222222244444444555555553333333322222222000000550000012\

 

Solo

G|-------------------------------------|

D|-------------------------------------|

A|-----------------55510-1010127-7-777-|

E|2225-5570-00-000---------------------|

 

G|----------------------------------------------|

D|----------------------------------------------|

A|-----------------55510-1010127777777777777----|

E|2225-5570-00-000--------------------------12\-|

 

Chorus

G|--------------------------------------|

D|--------------------------------------|

A|-----------------55510-1010127-7-777--| x2

E|2225-5570-00-000----------------------|

 

G|----------------------------------|

D|----------------------------------|

A|-----------------555--------------| x2

E|2225-5570-00-000----3-3350-0-000--|

 

Outro

G|------------|

D|------------|

A|----04570~--| x3

E|0457--------|

 

G|-----------|

D|-----------|

A|-----------|

E|2-2-5-5-0~-|

Click here to return to my Foo Fighters Bass Tabs page

The Tablature is Copyright its respective owners.

Sign Up For My Newsletter
Subscribe | Unsubscribe

Site Map | Disclaimer | Privacy Policy | Media Kit | Submissions/Corrections

Website © 2000-2014 mattsmusicpage.com. All rights reserved.

Legal & DMCA: Matt's Music Page has been providing lyrics and tabs in a legal way, paying royalties each year to a few organizations. Then, all lyrics and tabs were removed from the site. Now, there's a new owner to the site, which purchased it August 26, 2014, and he is in negotiation to obtain licensing from BMI at the moment. If you have a specific DMCA request -- please do not hesitate to contact me via the contact button on top. I will do my very best to keep this site fully legal.

Get our toolbar!

 

Solid Brass Willard Banjo Eagle New Part
$18.99
Solid Brass Willard Banjo Eagle New Part picture


American Style Howard Single Weight Driven Movement pend suspenson Banjo Clock
$29.99
American Style Howard  Single Weight Driven Movement pend suspenson Banjo  Clock picture


Antique WALTHAM Banjo Clock, 8 Day Time Only
$700.0
Antique WALTHAM Banjo Clock, 8 Day Time Only picture


Vintage Banjo Style Airguide Barometer Thermometer Humidty Faux Wood Plastic
$10.0
Vintage Banjo Style Airguide Barometer Thermometer Humidty Faux Wood Plastic picture


Dueling banjo snowman by Mr. Christmas
$19.99
Dueling banjo snowman by Mr. Christmas picture