Your One-Stop Source For
Music Lyrics
Bass and Guitar Tabs
and More...
Music Lyrics Bass and Guitar Tabs

 

Tabs of Foo Fighters Songs

Learn To Read Tab
Chords Handbook
Corrections & Additions
Get Official Tab
Foo Fighters tabs @ 911Tabs

 

Foo Fighters

Up in Arms - Bass Tab

Tabbed by Steve Bond

After spending ages looking for this tab on the i decided to just

tab it myself so here it is

 

Starts Slow

Verse 1

Repeat x2

G|---------------------------------------------------------------|

D|---------------------------------------------------------------|

A|3-3-3-3-2-2-2-2-0-0-0-0-------------------------3-3-3-3-3-3-3-3|

E|------------------------3-3-3-3-1-1-1-1-4-4-4-4----------------|

 

Chorus 1

G|---------------------------------------------------------------|

D|---------------------------------------------------------------|

A|--------------------------------3---3-3---3-3-3-0---0-0---0-0-0|

E|1-1-1-1-1-1-1-1-4-4-4-4-4-4-4-4--------------------------------|

 

G|---------------------------------------------------------------|

D|---------------------------------------------------------------|

A|---------------------------------3-----------------------------|

E|1-1-1-1-1-1-1-1-4-4-4-4-4-4-4-4--------------------------------|

 

Drum Solo

 

Fast

Verse 2

Repeat x2

G|---------------------------------------------------------------|

D|---------------------------------------------------------------|

A|3-3-3-3-2-2-2-2-0-0-0-0-------------------------3-3-3-3-3-3-3-3|

E|------------------------3-3-3-3-1-1-1-1-4-4-4-4----------------|

 

Chorus 2

G|---------------------------------------------------------------|

D|---------------------------------------------------------------|

A|--------------------------------3---3-3---3-3-3-0---0-0---0-0-0|

E|1-1-1-1-1-1-1-1-4-4-4-4-4-4-4-4--------------------------------|

 

G|---------------------------------------------------------------|

D|---------------------------------------------------------------|

A|--------------------------------3-3-3-3-3-3-3-3-3-3-3-3-3-3-3-3|

E|1-1-1-1-1-1-1-1-4-4-4-4-4-4-4-4--------------------------------|

 

Verse x2

 

Chorus 2 x2

 

Then

G|---------------------------------------------------------------|

D|---------------------------------------------------------------|

A|3-------------------------3----3----3--------------------------|

E|---------------------------------------------------------------|

 

 

This is my first tab but i know that it is right

Mail me with corrections or Praise

 

steve@bond1.freeserve.co.uk

 

I spent a while making sure it all lined up on A4 in notepad so it

should be ok

 

 

 

Return to my to my Foo Fighters bass tabs page

The Tablature is Copyright its respective owners.

Sign Up For My Newsletter
Subscribe | Unsubscribe

Site Map | Disclaimer | Privacy Policy | Media Kit | Submissions/Corrections

Website © 2000-2014 mattsmusicpage.com. All rights reserved.

Legal & DMCA: Matt's Music Page has been providing lyrics and tabs in a legal way, paying royalties each year to a few organizations. Then, all lyrics and tabs were removed from the site. Now, there's a new owner to the site, which purchased it August 26, 2014, and he is in negotiation to obtain licensing from BMI at the moment. If you have a specific DMCA request -- please do not hesitate to contact me via the contact button on top. I will do my very best to keep this site fully legal.

Get our toolbar!