Your One-Stop Source For
Music Lyrics
Bass and Guitar Tabs
and More...
Music Lyrics Bass and Guitar Tabs

 

Tabs of Foo Fighters Songs

Learn To Read Tab
Chords Handbook
Corrections & Additions
Get Official Tab
Foo Fighters tabs @ 911Tabs

Foo Fighters - Bullet With Butterfly Wings (Smashing Pumpkins Cover)

(Down Half-Step Tuning Eb, Ab, Db, Gb, Bb, Eb)

 

 

"The world is a vampire..."

 

*1

G1 and G2 mid/light distortion

|---------------------------------------------------------|

|---------------------------------------------------------|

|-4-4-4-4-(4)----------2-2-2-2----------------------------|

|-4-4-4-4--5--2--2-2-2-2-2-2-2----------------------------|

|-2-2-0-2--5--2--2-2-2-0-0-0-0----------------------------|

|----------3--0--0-0-0------------------------------------|

^repeat

 

*2

< <

|---------------------------------------------------------|

|---------------------------------------------------------|

|-4-4-4-------------------2---2---------------------------|

|-4-4-4-2-2-2-2-2-5-5-5-5-2-2-2-2-------------------------|

|-2-2-2-2-2-2-2-2-5-5-5-5-0-0-0-0-------------------------|

|-------0-0-0-0-0-3-3-3-3---------------------------------|

^repeat

^ that little "<"

is for emphasis.

 

*3

Heavy Distortion!!!

|---------------------------------------------------------|

|-------------3-(3-3)---------------------------3---------|

|-4--4-4------2--2-2-2--2-9\----------4--4-4----2---------|

|-4--4-4-5----0--0-0-2--2-9\--5----4--4--4-5----0---------|

|-2--2-0-5----0--0-0-0--0-7\--X----2--2--0-5----0---------|

|--------3-0--------------0---3------------3-0---...------|

^repeat

^one of the guitars

somehow tremolos a

G in here...don't ask

me :>

Chorus ends with:

|---------------------------------------------------------|

|---------------------------------------------------------|

|-------------2-------------------------------------------|

|-2---5---4---2-------------------------------------------|

|-2---5---4---0-------------------------------------------|

|-0---3---2-----------------------------------------------|

^repeated several times after second chorus

back to *1...

 

Outro (similar to *3)

|---------------------------------------------------------|

|---------3-----------------------------------------------|

|-4-------2-X-2-------------------------------------------|

|-4-X-5---0-X-2-------------------------------------------|

|-2-X-5---0-X-0-------------------------------------------|

|-----3---------------------------------------------------|

add rhythm there as appropriate...

 

___________________________

http://tabs.foofighters.com

 

Return to my to my Foo Fighters tabs page

The Tablature is Copyright its respective owners.

Sign Up For My Newsletter
Subscribe | Unsubscribe

Site Map | Disclaimer | Privacy Policy | Media Kit | Submissions/Corrections

Website © 2000-2014 mattsmusicpage.com. All rights reserved.

Legal & DMCA: Matt's Music Page has been providing lyrics and tabs in a legal way, paying royalties each year to a few organizations. Then, all lyrics and tabs were removed from the site. Now, there's a new owner to the site, which purchased it August 26, 2014, and he is in negotiation to obtain licensing from BMI at the moment. If you have a specific DMCA request -- please do not hesitate to contact me via the contact button on top. I will do my very best to keep this site fully legal.

Get our toolbar!