Your One-Stop Source For
Music Lyrics
Bass and Guitar Tabs
and More...
Music Lyrics Bass and Guitar Tabs

 

Tabs of Foo Fighters Songs

Learn To Read Tab
Chords Handbook
Corrections & Additions
Get Official Tab
Foo Fighters tabs @ 911Tabs

Foo Fighters - See You (Bass)

(Normal Tuning)

 

 

First Chorus

g||-----------------------------------------------------------------|

d||---------------------------------------------------5-6-7---------|

a||------------5-5-4-5-4-----------5-4-2-0------5h6h7---------------|

e||--5-5-3-5-5-----------5-5-3-5-5----------4-4-------------5-3-5-5-|

 

g||----------------------------------------------------||

d||-------3-2-------------2-4---------------------2-4--||

a||-------------------0-4-------3-2-------------4------||

e||-1-1-1-----0-3-3-4---------1-----1-0-3-3-4-5--------||

 

 

Verse

g||----------------------------|---------------------------|----------------------||

d||--3---------2-0---------2---|-----------------------2---|----------------------||

a||----3-0---------0---0-4-----|---3-2-------------0-4-----|---3-2-0--------------||

e||--------1-0-------3-------3-|-1-----1-0-3-x-3-4-------3-|-1-------1-0-3-x-3-4--||

 

 

Second Chorus

g||-------------------------------------------------------------------------------------|

d||-----------------------------------------------------------------------5-6-7---------|

a||------------5-5-4-5-4-----------5-5-4-5-4-----------5-4-2-0------5h6h7---------------|

e||--5-5-3-5-5-----------5-5-3-5-5-----------5-5-3-5-5----------4-4-------------5-3-5-5-|

 

g|-----------------------------------------------------||

d|-------3-2-2-----------2-4---------------------2-4---||

a|-------------------0-4-------3-2-------------4-------||

e|-1-1-1-------3-3-4---------1-----1-0-3-3-4-5---------||

 

 

Bridge

g||--------------------------------------------------------|

d||--------------------------------------------------------|

a||--------------------------------------------------------|

e||--3-3-3-3-3-3-3-3-3-3-3-3-3-3-3-3-3-3-5-5-5-5-5-5-8-8-8-|

 

g|-----------------------------------------||

d|-----------------------------------------||

a|--------------------------------------0--||

e|-3-3-3-3-3-3-3-3-1-1-1-1-1-1-1-1-0-------||

 

And for the rest of the song.....

 

You got all the riffs there!

 

___________________________

http://tabs.foofighters.com

Matt Armstrong

[matt@foofighters.com]

 

Return to my to my Foo Fighters bass tabs page

The Tablature is Copyright its respective owners.

Sign Up For My Newsletter
Subscribe | Unsubscribe

Site Map | Disclaimer | Privacy Policy | Media Kit | Submissions/Corrections

Website © 2000-2014 mattsmusicpage.com. All rights reserved.

Legal & DMCA: Matt's Music Page has been providing lyrics and tabs in a legal way, paying royalties each year to a few organizations. Then, all lyrics and tabs were removed from the site. Now, there's a new owner to the site, which purchased it August 26, 2014, and he is in negotiation to obtain licensing from BMI at the moment. If you have a specific DMCA request -- please do not hesitate to contact me via the contact button on top. I will do my very best to keep this site fully legal.

Get our toolbar!