Your One-Stop Source For
Music Lyrics
Bass and Guitar Tabs
and More...
>Music Lyrics Bass and Guitar Tabs

 

Tabs of Foo Fighters Songs

Learn To Read Tab
Chords Handbook
Corrections & Additions
Get Official Tab
Foo Fighters tabs @ 911Tabs

Artist: Foo Fighters

Title: Overdrive

Album: One by One

Bassist: Nate Mendal

 

Intro

G-----------------------------------

D-----------------------------------

A-5555555555555555------------------

D------------------7777777777777777- x3

 

G-----------------------------------

D-----------------------------------

A-----------------------------------

D-5555555555555555-7----5p4-----2p0-

 

Verse 1

G-----------------------------------

D-----------------------------------

A-5555555555555555------------------

D------------------7777777777777777- x2

 

G------------------------------------------------------------------------

D------------------------------------------------------------------------

A----------55555555----------55555555-------------------5555555555555555-

D-55555555----------55555555----------77777777-55555555------------------

 

G---------------------------------------------------------------------

D---------------------------------------------------------------------

A-5555555555555555------------------5555555555555555------------------

D------------------7777777777777777------------------777777777777777\-

 

G--------------------------------------------------------------------------

D---------------------------------------------------4h5--------------------

A----------55555/7/9----------55555555------------------7-5555555555555555-

D-55555555-----------55555555----------77777777-5555-----------------------

 

Chorus 1

G-----------------------------------

D-----------------------------------

A-55555555555555--------------------

D---------------5--7777777777777777- x2

 

G----------------------------------------------------

D----------------------------------------------------

A-55555555555555-------------------------------------

D---------------5--777777777755-420-5555555555555555-

 

G-----------------------------------

D-----------------------------------

A-55555555555555--------------------

D---------------5--7777777777777777- x2

 

Verse 2

G-----------------------------------------------------------------------

D-----------------------------------------------------------------------

A-5555555555555555------------------5555555555555555--------------------

D------------------7777777777777777------------------777777777777777/15-

 

G-------------------------------------------------------------------------

D---------------------------------------------------4h55------------------

A----------55555555----------55555555--------------------5555555555555555-

D-55555555----------55555555----------77777777-55555----------------------

 

Chorus 2

G-----------------------------------

D-----------------------------------

A-5555555555555555------------------

D------------------7777777777777777- x2

 

G--------------------------------------------------------------------------------------

D--------------------------------------------------------------------------------------

A-55555555555555-----------------------------------------------------55555555555555555-

D---------------5--777777777755-420-55555555555555555555555555555555-------------------

 

Solo

G-------------------------------------

D-------------------------------------

A----------55555555----------55555555-

D-55555555----------55555555---------- x2

 

G--------------------------------------

D---------------4h5--------------------

A-------------------7-5555555555555555-

D-77777777-5555------------------------

 

Verse 3

G-----------------------------------------------------------------------

D-----------------------------------------------------------------------

A-5555555555555555------------------5555555555555555--------------------

D------------------7777777777777777------------------777777777777777/15-

 

G-------------------------------------------------------------------------

D---------------------------------------------------55--------------------

A----------55555555----------55555555------------------7-5555555555555555-

D-55555555----------55555555----------77777777-5555-----------------------

 

Chorus 3

G-----------------------------------

D-----------------------------------

A-5555555555555555------------------

D------------------7777777777777777- x3

 

G------------------

D------------------

A------------------

D-5555555555555555-

 

G-----------------------------------

D-----------------------------------

A-5555555555555555------------------

D------------------7777777777777777- x2

 

G---------------------------------------------------------------------------------------444455557777---

D-------------------------------------------------------------------5555----444455557777-------------0-

A-55555555555555--------------------------------------------------------7777---------------------------

D---------------5--777777777755-420-55555555555555555555555555555555-----------------------------------

 

 

 

Return to my to my Foo Fighters bass tabs page

The Tablature is Copyright its respective owners.

Sign Up For My Newsletter
Subscribe | Unsubscribe

Site Map | Disclaimer | Privacy Policy | Media Kit | Submissions/Corrections

Website © 2000-2014 mattsmusicpage.com. All rights reserved.

Legal & DMCA: Matt's Music Page has been providing lyrics and tabs in a legal way, paying royalties each year to a few organizations. Then, all lyrics and tabs were removed from the site. Now, there's a new owner to the site, which purchased it August 26, 2014, and he is in negotiation to obtain licensing from BMI at the moment. If you have a specific DMCA request -- please do not hesitate to contact me via the contact button on top. I will do my very best to keep this site fully legal.

Get our toolbar!

 

CHRISTOPHER RADKO LIMITED LARGE MUSICAL SNOW GLOBE VINTAGE GREEN SANTA-LIGHTED
$145.0
CHRISTOPHER RADKO LIMITED LARGE MUSICAL SNOW GLOBE VINTAGE GREEN SANTA-LIGHTED picture


Vintage Enesco Music Box Plays Noah's Ark "Talk to the Animals"
$32.99
Vintage Enesco Music Box Plays Noah's Ark


Vintage Real Musical Christmas Egg Raccoon Singing "Joy to the World"
$38.99
Vintage Real Musical Christmas Egg  Raccoon Singing


Vintage Ford Model T Wooden Musical Box By George Good
$10.99
Vintage Ford Model T  Wooden Musical Box By George Good picture


Beautiful Antique Vintage 19th Century 1888 Mermod Freres Wooden Music Box
$488.88
Beautiful Antique Vintage 19th Century 1888 Mermod Freres Wooden Music Box picture