Your One-Stop Source For
Music Lyrics
Bass and Guitar Tabs
and More...
Music Lyrics Bass and Guitar Tabs

 

Tabs of Foo Fighters Songs

Learn To Read Tab
Chords Handbook
Corrections & Additions
Get Official Tab
Foo Fighters tabs @ 911Tabs

Foo Fighters - The One (Bass)

(Normal Tuning)

 

 

Intro\Post-Chorus

G|--------------------------|

D|--------------------------|

A|--------------------5-6---|

E|-4h5(run with beat)-------|

 

 

Verse - Part one

G|--------------------------|

D|--------------------------|

A|--------------------------|

E|-5555-4444-3333-2222-1111-|

 

(First time)

G|--------------7--5h7------|

D|---------------------5h7--|

A|------5-5-0h5--5----------|

E|-0000---------------------|

 

Verse - Part two

G|--------------------------|

D|--------------------------|

A|------5(run with beat)----|

E|-0000---------------------|

 

 

Chorus

G|----------------------------|

D|----------------------------|

A|----------4h555555-2h333333-|

E|-4h555555-------------------|

 

G|----------------------------|

D|----------------------------|

A|----------------------------|

E|-0-0-3-3--------------------|

 

 

Bridge (play most with beat)

G|---------------------------|

D|---------------------------| (x2)

A|-5555-6-7777-8-10101010/5--|

E|---------------------------|

 

G|---------------------------|

D|---------------------------|

A|-\7/0\7/0\7/0\7------------|

E|---------------------------|

 

 

Outro

G|---------------------------|

D|---------------------------|

A|---------------------------|

E|-333333--5-5---------------|

 

_____________________________________

http://tabs.foofighters.com

John Cochrane [Lionheart@queendom.com]

 

Return to my to my Foo Fighters bass tabs page

The Tablature is Copyright its respective owners.

Sign Up For My Newsletter
Subscribe | Unsubscribe

Site Map | Disclaimer | Privacy Policy | Media Kit | Submissions/Corrections

Website © 2000-2014 mattsmusicpage.com. All rights reserved.

Legal & DMCA: Matt's Music Page has been providing lyrics and tabs in a legal way, paying royalties each year to a few organizations. Then, all lyrics and tabs were removed from the site. Now, there's a new owner to the site, which purchased it August 26, 2014, and he is in negotiation to obtain licensing from BMI at the moment. If you have a specific DMCA request -- please do not hesitate to contact me via the contact button on top. I will do my very best to keep this site fully legal.

Get our toolbar!

 

Starbucks You Are Here Coffee Mug/Cup KENTUCKY - Horses, Banjo, Blue, White
$19.99
Starbucks You Are Here Coffee Mug/Cup KENTUCKY - Horses, Banjo, Blue, White picture


KNOWLES ROCKWELL HERITAGE "THE BANJO PLAYER" FIRST EDITION 1989 PLATE COA
$5.99
KNOWLES ROCKWELL HERITAGE


Vintage Postcard 1981 Disney World Banjo Kings Main Street USA 1981 Postmark
$4.99
 Vintage Postcard 1981 Disney World Banjo Kings Main Street USA 1981 Postmark picture


Banjo Barometer With Thermometer Hygrometer 490mm
$84.76
Banjo Barometer With Thermometer Hygrometer 490mm picture


ANTIQUE JAPANESE NIPPON FIGURINE SET OF 3 WOMEN GEISHA PLAYING DRUM BANJO FAN
$24.0
ANTIQUE JAPANESE NIPPON FIGURINE SET OF 3 WOMEN GEISHA PLAYING DRUM BANJO FAN picture