Your One-Stop Source For
Music Lyrics
Bass and Guitar Tabs
and More...
Music Lyrics Bass and Guitar Tabs

 

Tabs of Foo Fighters Songs

Learn To Read Tab
Chords Handbook
Corrections & Additions
Get Official Tab
Foo Fighters tabs @ 911Tabs

Artist: Foo Fighters

Song: Normal

Album: Times Like These B-Side

Bassist: Nate Mendal

 

Intro

G-------------------------

D-------------------------

A-0---004---442---22------

E-------------------2-2-4- x3

 

G-------------------------

D-------------------------

A-0--00-4--44-2--22~------

E-------------------------

 

Verse

G--------------------

D--------------------

A-0~-----0-2~--------

E--------------------

 

Pre-Chorus

G---------------------------------------------

D---------------------------------------------

A-000-00-0-0-222-22-2-2-444-44-4-4-666-66-6-6-

E---------------------------------------------

 

G---------------------------------------------

D-----------------------777-77-7-7-999-99-9-9-

A-777-77-7-7-999-99-9-9-----------------------

E---------------------------------------------

 

G---------------------------------------------

D---------------------------------------------

A---------------------------------------------

E-000-00-0-0-222-22-2-2-333-33-3-3-555555~----

 

Chorus 1 - Same as intro

Chorus 2

G-------------------------

D-------------------------

A-0---004---442---22------

E-------------------2-2-4- x8

 

Solo

G---------------------------------------------

D---------------------------------------------

A---------------------------------------------

E-000-00-0-0-222-22-2-2-333-33-3-3-555-55-5-5-

 

G-------------------------------------------------

D-------------------------------------------------

A-------------------------------------------------

E-000-00-0-0-222-22-3p2h3p2-333-33-3-3-555-55~----

 

Chorus 3 - same as Chorus 2

 

Outro

G-------------------------

D-------------------------

A-0---004---442---22------

E-------------------2-2-4- x3

 

G-------------------------

D-------------------------

A-0-----4-----2-----------

E-------------------2-----

 

 

Return to my to my Foo Fighters bass tabs page

The Tablature is Copyright its respective owners.

Sign Up For My Newsletter
Subscribe | Unsubscribe

Site Map | Disclaimer | Privacy Policy | Media Kit | Submissions/Corrections

Website © 2000-2014 mattsmusicpage.com. All rights reserved.

Legal & DMCA: Matt's Music Page has been providing lyrics and tabs in a legal way, paying royalties each year to a few organizations. Then, all lyrics and tabs were removed from the site. Now, there's a new owner to the site, which purchased it August 26, 2014, and he is in negotiation to obtain licensing from BMI at the moment. If you have a specific DMCA request -- please do not hesitate to contact me via the contact button on top. I will do my very best to keep this site fully legal.

Get our toolbar!

 

Starbucks You Are Here Coffee Mug/Cup KENTUCKY - Horses, Banjo, Blue, White
$19.99
Starbucks You Are Here Coffee Mug/Cup KENTUCKY - Horses, Banjo, Blue, White picture


KNOWLES ROCKWELL HERITAGE "THE BANJO PLAYER" FIRST EDITION 1989 PLATE COA
$5.99
KNOWLES ROCKWELL HERITAGE


Vintage Postcard 1981 Disney World Banjo Kings Main Street USA 1981 Postmark
$4.99
 Vintage Postcard 1981 Disney World Banjo Kings Main Street USA 1981 Postmark picture


Banjo Barometer With Thermometer Hygrometer 490mm
$84.76
Banjo Barometer With Thermometer Hygrometer 490mm picture


ANTIQUE JAPANESE NIPPON FIGURINE SET OF 3 WOMEN GEISHA PLAYING DRUM BANJO FAN
$24.0
ANTIQUE JAPANESE NIPPON FIGURINE SET OF 3 WOMEN GEISHA PLAYING DRUM BANJO FAN picture