Your One-Stop Source For
Music Lyrics
Bass and Guitar Tabs
and More...
Music Lyrics Bass and Guitar Tabs

 

Tabs of Foo Fighters Songs

Learn To Read Tab
Chords Handbook
Corrections & Additions
Get Official Tab
Foo Fighters tabs @ 911Tabs

Foo Fighters - Make A Bet (Bass)

(Normal Tuning)

 

 

G|-------------------------------------|

D|-------------------------------------|

A|--------5-7-5-7-5-2------------------|

E|--0-0-0-------------0-0-0-4-5-5-5-4--|

(3x)

 

G|--------------------------------------------------------------|

D|--------------------------------------------------------------|

A|--------5-7-5-7-5-2-------------------------------------------|

E|--0-0-0-------------0-0-0-4-5-7-9-10-10-10-10-10-7-7-7-7-7-7--|

 

___________________________

http://tabs.foofighters.com

 

Return to my to my Foo Fighters bass tabs page

The Tablature is Copyright its respective owners.

Sign Up For My Newsletter
Subscribe | Unsubscribe

Site Map | Disclaimer | Privacy Policy | Media Kit | Submissions/Corrections

Website © 2000-2014 mattsmusicpage.com. All rights reserved.

Legal & DMCA: Matt's Music Page has been providing lyrics and tabs in a legal way, paying royalties each year to a few organizations. Then, all lyrics and tabs were removed from the site. Now, there's a new owner to the site, which purchased it August 26, 2014, and he is in negotiation to obtain licensing from BMI at the moment. If you have a specific DMCA request -- please do not hesitate to contact me via the contact button on top. I will do my very best to keep this site fully legal.

Get our toolbar!