Your One-Stop Source For
Music Lyrics
Bass and Guitar Tabs
and More...
Music Lyrics Bass and Guitar Tabs

 

Tabs of Foo Fighters Songs

Learn To Read Tab
Chords Handbook
Corrections & Additions
Get Official Tab
Foo Fighters tabs @ 911Tabs

Artist: Foo Fighters

Title: Lonely As You

Album: One by One

Bassist: Nate Mendal

 

Intro - No Bass

 

Verse 1

G|--------------------------------------------------------------------------

D|--------------------------------------------------------------------------

A|----------11111111--------------------------------------------------------

D|-44444444----------22222222-11111111-00000-222-44444444-66666666-55555555-

 

G|-------------------------------------------------------------------------

D|-------------------------------------------------------------------------

A|----------11111111--------------------------------------2222222222222222-

D|-44444444----------22222222-11111111-00000-222-44444444------------------

Verse 1 only Verse 1 & 2

G|--------------------------------------------------------------------------|-------------------------------------

D|--------------------------------------------------------------------------|-------------------------------------

A|----------11111111--------------------------------------------------------|----------11111111-------------------

D|-44444444----------22222222-11111111-00000-222-44444444-66666666-55555555-|-44444444----------22222222-11111111-

 

Pre-Chorus

G|----------------------------------------------------------------------------------

D|----------------------------------------------------------------------------------

A|----------------------------------------------------------------------------------

D|-0-0-02-2-4--4\-0-0-02-2-4--4\-0-0-02-2-4--4\-99999999-77777777-66666666-55555555-

 

Chorus

G|-----------------------------------------

D|-----------------------------------------

A|----------------------555-----777-----10-

D|-444-333-222-111-0--------777-----999---- x4

 

Solo

G|-------------------------------------------------------------------4----------

D|---------------------2-2-2h4-2--4-11111----000002--2/44444\--666666--5555-----

A|-------------11111-------------------------------------------------------7777-

D|-4-44-2h4--4------------------------------------------------------------------

 

G|-------------------------------------------------------------4444444444444444-

D|---------------------2-2-2h4-2--4-11111----000002--2/44444\-------------------

A|-------------11111------------------------------------------------------------

D|-4-44-2h4--4------------------------------------------------------------------

 

Verse 3

G|------------------------------------------------------------------------------------------------

D|---------------------2-2-2h4-2--4-11111---------------------------------------------------------

A|-------------11111-------------------------5-5557--7/9--9\---5-5557--7/9--9\---5-5557--7/9--9\--

D|-4-44-2h4--4------------------------------------------------------------------------------------

 

G|------------------------------------------

D|-9999999h11-7777777h9-66666666h7-55555555-

A|------------------------------------------

D|------------------------------------------

 

Last Chorus

G|-----------------------------------------

D|-----------------------------------------

A|----------------------555-----777-----10-

D|-444-333-222-111-0--------777-----999-----x4

 

G|-----------------------------------------

D|-----------------------------------------

A|----------------------555-----777-----10-

D|-444-333-222-111-0-0------777-----999---- x4

 

 

 

Return to my to my Foo Fighters bass tabs page

The Tablature is Copyright its respective owners.

Sign Up For My Newsletter
Subscribe | Unsubscribe

Site Map | Disclaimer | Privacy Policy | Media Kit | Submissions/Corrections

Website © 2000-2014 mattsmusicpage.com. All rights reserved.

Legal & DMCA: Matt's Music Page has been providing lyrics and tabs in a legal way, paying royalties each year to a few organizations. Then, all lyrics and tabs were removed from the site. Now, there's a new owner to the site, which purchased it August 26, 2014, and he is in negotiation to obtain licensing from BMI at the moment. If you have a specific DMCA request -- please do not hesitate to contact me via the contact button on top. I will do my very best to keep this site fully legal.

Get our toolbar!

 

Hard Rock Pin Las Vegas 4th of july red white and blue guitar
$5.0
Hard Rock Pin Las Vegas 4th of july red white and blue guitar picture


Hard Rock Pin Hollywood Fl Bell Girl with dice luggage and guitar
$5.0
Hard Rock Pin Hollywood Fl Bell Girl with dice luggage and guitar picture


Hard Rock Pin Las Vegas King of Clubs Guitar rare only 3 lines of info on back
$5.0
Hard Rock Pin Las Vegas King of Clubs Guitar rare only 3 lines of info on back picture


Hard Rock Pin Edmonton guitar pin
$5.0
Hard Rock Pin Edmonton guitar pin picture


Lladro Guitar Boy #4614 - Beautiful Piece of Lladro
$109.0
Lladro Guitar Boy #4614 - Beautiful Piece of Lladro picture