Your One-Stop Source For
Music Lyrics
Bass and Guitar Tabs
and More...
Music Lyrics Bass and Guitar Tabs

 

Tabs of Foo Fighters Songs

Learn To Read Tab
Chords Handbook
Corrections & Additions
Get Official Tab
Foo Fighters tabs @ 911Tabs

Artist: Foo Fighters

Title: Headwires

Album: TNLTL

Bassist: Nate Mendal

 

Intro

G---------

D---------

A---------

D-/12-12\-

 

G---------------------------------

D---------------------------------

A-5-4---2-0-------5-4-0-2-0-----5-

D-----------------------------0---

 

G---------------------------------

D---------------------------------

A-5-4---2-0-------5-4-------------

D---------------------7-9-7---7\--

 

Verse 1

G---------------------------------

D---------------------------------

A-5-4---2-0-------5-4-0-2-0-----5-

D-----------------------------0--- x3

 

G-----------------------------------------------------------------

D-----------------------------------------------------------2-4/7-

A-5-5-5-5-5-5-5-5-----------------5-4---2-0-------5-4-0-2-0-------

D-----------------2-2-2-2-2-2-2-2---------------------------------

 

G---------------------------------

D---------------------------------

A-5-4---2-0-------5-4-0-2-0-----5-

D-----------------------------0--- x3

 

G-----------------------------------------------------------------

D-5-5-4-4-------4-------------------------------------------------

A---------7-5-7---0-0-9-7-5---5-7-5-4---2-0-----------------------

D---------------------------9-------------------4-5-4-2-4-2-0-0-0-

 

Chorus 1

G-----------------------------------------------------------------

D-----------------------------------------------------------------

A-----------------------5-7-5-------------------------------------

D-9-9-9-9-9-9-9-9-7-7-9-------9-7-5-5-5-5-5-5-5-5-5-5-5-5-5-5-5-5-

 

G-----------------------------------------------------------------

D-----------------------------------------------------------------

A-3-3-3-3-3-3-3-3-2-2-2-2-2-2-2-2-5-4---2-0---2-2-4-4-5-5-7-7-9-9-

D-----------------------------------------------------------------

 

G-----------------------------------------------------------------

D-----------------------------------------------------------------

A---------------------7---7/9-/12---------------------------------

D-9-9-9-9-9-9-9-9-7-7---7---------5-5-5-5-5-5-5-5-5-5-5-5-5-5-5-5-

 

G-----------------------------------------------------------------

D-----------------------------------------------------------------

A-3-3-3-3-3-3-3-3-2-2-2-2-2-2-2-2-1-1-1-1-1-1-1-1-0-0-0-0-0-0-0-0-

D-----------------------------------------------------------------

 

G---------------------------------

D---------------------------------

A---------------------------------

D-5~--------------2~--------------

 

Verse 2

G---------------------------------

D---------------------------------

A-5-4---2-0-------5-4-0-2-0-----5-

D-----------------------------0--- x5

 

G-----------------------------------------------------------------

D-----------------------------------------------------------4-5/7-

A-5-5-5-5-5-5-5-5-----------------5-4---2-0-------5-4-0-2-0-------

D-----------------2-2-2-2-2-2-2-2---------------------------------

 

G---------------------------------

D---------------------------------

A-5-4---2-0-------5-4-0-2-0-----5-

D-----------------------------0--- x3

 

G-----------------------------------------------------------------

D-5-5-4-4-------4-------------------------------------------------

A---------7-5-7---0-0-9-7-5---5-7-5-4---2-0-0---------------------

D---------------------------9-----------------5-5-4-4-2-2-0-2-0-0-

 

Chorus 2

G-----------------------------------------------------------------

D-----------------------------------------------------------------

A---------------------5-5-7-5-------------------------------------

D-9-9-9-9-9-9-9-9-7-7---------9-7-5-5-5-5-5-5-5-5-5-5-5-5-5-5-5-5-

 

G-----------------------------------------------------------------

D-----------------------------------------------------------------

A-3-3-3-3-3-3-3-3-2-2-2-2-2-2-2-2-5-4---2-0---2-2-4-4-5-5-7-7-9-9-

D-----------------------------------------------------------------

 

G-----------------------------------------------------------------

D-----------------------------------------------------------------

A---------------------7---7/9/12----------------------------------

D-9-9-9-9-9-9-9-9-7-7---7---------5-5-5-5-5-5-5-5-5-5-5-5-5-5-5-5-

 

G-----------------------------------------------------------------

D-----------------------------------------------------------------

A-3-3-3-3-3-3-3-3-2-2-2-2-2-2-2-2-5-5-5-5-7-7-7-7-8-8-8-8-7h8-7h8-

D-----------------------------------------------------------------

 

G-----------------------------------------------------------------

D-----------------------------------------------------------------

A-3-3-3-3-3-3-3-3-2-2-2-2-2-2-2-2-1-1-1-1-1-1-1-1-0-0-0-0-0-0-0-0-

D----------------------------------------------------------------- x4

 

G---------------------------------

D---------------------------------

A---------------------------------

D-5~--------------2~--------------

 

Verse 3

No bass till 3:24

G--------------------------------- \

D--------------------------------- |

A-5-4---2-0-------5-4-0-2-0-----5- |

D-----------------------------0--- x2 |

| x3

G--------------------------------- |

D-5-5-4-4-------4----------------- |

A---------7-5-7---0-0-9-7-5---5-7- |

D---------------------------9----- /

 

Outro

G---------------------------------

D---------------------------------

A-5-5---5-5-------5-5-5-5-5---5-5-

D--------------------------------- x4

 

G--------------------------------- \

D--------------------------------- |

A-5-4---2-0-------2-4-0-2-0-----5- |

D-----------------------------0--- |

| Fade till end

G--------------------------------- |

D-------------7-4-5-4-2-4-0-0-0--- |

A-5-4---2-0-0--------------------- |

D--------------------------------- /

 

 

Return to my to my Foo Fighters bass tabs page

The Tablature is Copyright its respective owners.

Sign Up For My Newsletter
Subscribe | Unsubscribe

Site Map | Disclaimer | Privacy Policy | Media Kit | Submissions/Corrections

Website © 2000-2014 mattsmusicpage.com. All rights reserved.

Legal & DMCA: Matt's Music Page has been providing lyrics and tabs in a legal way, paying royalties each year to a few organizations. Then, all lyrics and tabs were removed from the site. Now, there's a new owner to the site, which purchased it August 26, 2014, and he is in negotiation to obtain licensing from BMI at the moment. If you have a specific DMCA request -- please do not hesitate to contact me via the contact button on top. I will do my very best to keep this site fully legal.

Get our toolbar!

 

1983 SEALED LP Return of the Jedi + 1977 Star Wars Vinyl 2 Record Set - Sci-Fi
$22.5
1983 SEALED LP Return of the Jedi + 1977 Star Wars Vinyl 2 Record Set - Sci-Fi picture


Frank Sinatra - Swingin Lovers & Sept of My Years (Reprise)[LP-Vinyl] RECORDS
$10.0
Frank Sinatra - Swingin Lovers & Sept of My Years (Reprise)[LP-Vinyl] RECORDS picture


Ion Audio Turntable & Vinyl Record Archiver with USB Connector TTUSB10 - EUC
$59.99
Ion Audio Turntable & Vinyl Record Archiver with USB Connector TTUSB10 - EUC picture


Vintage 1975 LP Big Rig Truckers LP Put the Hammer Down - Vinyl Record
$15.99
Vintage 1975 LP Big Rig Truckers LP Put the Hammer Down - Vinyl Record picture


1970`s Sanrio HELLO KITTY Vinyl Record STICKERS Vintage VERY RARE
$0.99
1970`s Sanrio HELLO KITTY Vinyl Record STICKERS Vintage VERY RARE picture