Your One-Stop Source For
Music Lyrics
Bass and Guitar Tabs
and More...
Music Lyrics Bass and Guitar Tabs

 

Tabs of Foo Fighters Songs

Learn To Read Tab
Chords Handbook
Corrections & Additions
Get Official Tab
Foo Fighters tabs @ 911Tabs

Foo Fighters - Halo

 

Intro

G---------------------------------

D---------------------------------

A---------------------------------

E-3-3-3-3-3-0h3-3---0h3-3---0h3-0- x3

 

G---------4-2-0-------0---------2-

D---------------2-------4---------

A---------------------------------

E-3-3-3-3-------------------------

 

Verse 1

G---------------------------------

D---------------------------------

A---------------------------------

E-3-3-3-3-3-0h3-3---0h3-3---0h3-0- x2

 

G-----------------------------------------------------------------

D-----------------------------------------------------------------

A-----------------------------------------------------------------

E-1-1-1-1-1-0h1-1---0h1-1---0h1-0-5-5-5-5-5-0h5-5---0h5-5---0h5-0-

 

G---------------------------------

D---------------------------------

A---------------------------------

E-3-3-3-3-3-0h3-3---0h3-3---0h3-0- x2

 

G-----------------------------------------------------------------

D---------------------------------------------------------5-5h7-5-

A-----------------------------------------------------------------

E-1-1-1-1-1-0h1-1---0h1-1---0h1-0-5-5-5-5-5-0h5-5---0h5-5---------

 

Pre-Chorus

G-------------------------------------------------------

D-------------------------------------------------------

A-1111111-2---------11111-3-2---------1111111-2---------

E-----------3333333-----------3333333-----------3333333-

 

G----------------------------

D----------1010101010-9-7----

A-------------------------10-

E-88888888-------------------

 

Chorus

G-------------------------------------------------------------------------------------------------

D-------------------------------------------------------------------------------------------------

A-1010---10--10-9-9---9----9-8-8----8---8-7-7----7---7-6-6----6---6-5-5----5---5-3333-333--555555-

E-----10---10------10---10-------8----8-------8----8-------6----6-------5----5--------------------

 

Verse 2

G---------------------------------

D-------------------------5---5h7-

A-----------------------7---7-----

E-3-3-3-3-3-0h3-3---3-3-----------

 

G---------------------------------

D---------------------------------

A---------------------------------

E-3-3-3-3-3-0h3-3---0h3-3---0h3-0- x2

 

G-----------------------------------------------------------------

D-----------------------------------------------------------------

A-----------------------------------------------------------------

E-1-1-1-1-1-0h1-1---0h1-1---0h1-0-5-5-5-5-5-0h5-5---0h5-5---0h5-0-

 

G---------------------------------

D---------------------------------

A---------------------------------

E-3-3-3-3-3-0h3-3---0h3-3---0h3-0- x2

 

G------------------------------------------------------------------

D---------------------3-5h7-5----------------------------5-7-5-----

A-------------------3---------7------------------5h7-5-7-------7-5-

E-1-1-1-1-1-0h1-1-1-------------5-5-5-5-5-0h5-5--------------------

 

Pre-Chorus 2

G-------------------------------------------------------

D-------------------------------------------------------

A-1111111-2---------11111-3-2---------1111111-2---------

E-----------3333333-----------3333333-----------3333333-

 

G------------------

D------------------

A------------------

E-8888888888888888-

 

Chorus 2

G-----------------------------------------------------------------------------------------------------------------------

D------12---12-------12---12-------10----10-------10----10---------------------------------------5----5-----7-7-------5-

A-10-10---10--10-9--9---9----9-8--8----8----8-7--7----7----7-6---6-6---6-6-6-5--5-5---5-5-5-3--3----3---3/5-----5-5h7---

E-----------------------------------------------------------------------------------------------------------------------

 

G-------------------------------------------------------------------------------------------

D------12---12-------12---12-------10----10-------10----10----------------------------------

A-10-10---10--10-9--9---9----9-8--8----8----8-7--7----7----7-6---6-6---6-6-6-5--5-5---5-5-5-

E-------------------------------------------------------------------------------------------

 

Solo/Bridge

G-------------------------------------

D-------------------------------------

A----------55555555-66666666-88888888-

E-88888888---------------------------- x2

 

G-------------------------------------

D-------------------------------------

A-----8-8--55555555-66666666-88888888-

E-8888-8-8----------------------------

 

G-------------------------------------

D-------------------------------------

A----------55555555-66666666-88888888-

E-88888888----------------------------

 

G------------------------------------------------------------------------

D-55555555-44444444------------------------------------------------------

A-------------------88888888-7777777-66666666-55555555-33333333--5555555-

E------------------------------------------------------------------------

 

G------------------------------------------------------------------------

D-55555555-44444444------------------------------------------------------

A-------------------88888888-7777777-66666666-55555555-33333333-33333333-

E------------------------------------------------------------------------

 

Chorus 3

G------------------------------------------------------------

D------12---12-------12---12-------10----10-------10----10---

A-10-10---10--10-9--9---9----9-8--8----8----8-7--7----7----7-

E------------------------------------------------------------

 

G----------------------------------------------------------------

D----------------------------------------------------------------

A-6---6-6---6-6-6-5--5-5---5-5-5-3---3-3---3-3-3---5-5-5-5-5-5-5-

E----------------------------------------------------------------

 

G------------------------------------------------------------

D------12---12-------12---12-------10----10-------10----10---

A-10-10---10--10-9--9---9----9-8--8----8----8-7--7----7----7-

E------------------------------------------------------------

 

G--------------------------------

D--------------------------------

A-6---6-6---6-6-6-5--5-5---5-5-5-

E--------------------------------

 

Outro

G-------------------------------------

D-------------------------------------

A----------55555555-66666666-88888888-

E-88888888---------------------------- x2

 

G---------------------------------

D---------------------------------

A---------------------------------

E-3-3-3-3-3-0h3-3---0h3-3---0h3-0- x3

 

G-----------------

D-----------------

A-----------------

E-3-3-3-3-3-0h3-3-

 

 

Return to my to my Foo Fighters bass tabs page

The Tablature is Copyright its respective owners.

Sign Up For My Newsletter
Subscribe | Unsubscribe

Site Map | Disclaimer | Privacy Policy | Media Kit | Submissions/Corrections

Website © 2000-2014 mattsmusicpage.com. All rights reserved.

Legal & DMCA: Matt's Music Page has been providing lyrics and tabs in a legal way, paying royalties each year to a few organizations. Then, all lyrics and tabs were removed from the site. Now, there's a new owner to the site, which purchased it August 26, 2014, and he is in negotiation to obtain licensing from BMI at the moment. If you have a specific DMCA request -- please do not hesitate to contact me via the contact button on top. I will do my very best to keep this site fully legal.

Get our toolbar!