Your One-Stop Source For
Music Lyrics
Bass and Guitar Tabs
and More...
Music Lyrics Bass and Guitar Tabs

 

Tabs of Foo Fighters Songs

Learn To Read Tab
Chords Handbook
Corrections & Additions
Get Official Tab
Foo Fighters tabs @ 911Tabs

Foo Fighters - Good Grief (Bass)

(Drop D Tuning)

 

 

Intro

G|--------------------------|--------------------------|

D|--------------------------|--------------------------|

A|--------------------------|--------------------------|

D|--8--8--8--8--8--8--8--8--|--8--8--8--8--8--8--8--8--|

 

G|--------------------------|--------------------------|

D|--------------------------|--------------------------|

A|--4--4--4--4--4--4--4--4--|--4--4--4--4--4--4--4--4--|

D|--------------------------|--------------------------|

 

G|--------------------------|--------------------------|

D|--------------------------|--------------------------|

A|--------------------------|--------------------------|

D|--3--3--3--3--3--3--3--3--|--3--3--3--3--3--3--3--3--|

 

x2

G|--------------------------|--------------------------|

D|--------------------------|--------------------------|

A|--------------------------|--------------------------|

D|--6--6--6--6--6--6--6--6--|--6--6--6--6--6--6--6--6--|

 

 

Verse

G|--------------------------|--------------------------|

D|--------------------------|--------------------------|

A|--------------------------|--------------------------|

D|--8--8--8--8--8--8--8--8--|--8--8--8--8--8--8--8--8--|

 

G|--------------------------|--------------------------|

D|--------------------------|--------------------------|

A|--4--4--4--4--4--4--4--4--|--4--4--4--4--4--4--4--4--|

D|--------------------------|--------------------------|

 

G|--------------------------|--------------------------|

D|--------------------------|--------------------------|

A|--------------------------|--------------------------|

D|--3--3--3--3--3--3--3--3--|--3--3--3--3--3--3--3--3--|

 

x3

G|--------------------------|--------------------------|

D|--------------------------|--------------------------|

A|--------------------------|--------------------------|

D|--6--6--6--6--6--6--6--6--|--6--6--6--6--6--6--6--6--|

 

G|--------------------------|--------------------------|

D|--------------------------|--------------------------|

A|--------------------------|--------------------------|

D|--8--8--8--8--8--8--8--8--|--8--8--8--8--8--8--8--8--|

 

G|--------------------------|--------------------------|

D|--------------------------|--------------------------|

A|--4--4--4--4--4--4--4--4--|--4--4--4--4--4--4--4--4--|

D|--------------------------|--------------------------|

 

G|--------------------------|--------------------------|

D|--------------------------|--------------------------|

A|--------------------------|--------------------------|

D|--3--3--3--3--3--3--3--3--|--3--3--3--3--3--3--3--3--|

 

 

Chorus

G|---------------------------|--------------------------|

D|---------------------------|--------------------------|

A|---------------------------|--------------------------|

D|---6--6--6--6--6--6--6--6--|--1--1--1--1--1--1--1--1--|

 

x2

G|---------------------------|

D|---------------------------|

A|---------------------------|

D|--3--3--3--3--3--3--3--3---|

 

G|--------------------------|--------------------------|

D|--------------------------|--------------------------|

A|--------------------------|--------------------------|

D|--6--6--6--6--6--6--6--6--|--1--0--1--0--1--0--1--0--|

 

G|--------------------------|

D|--------------------------|

A|--------------------------|

D|--1--0--1--0--1--0--1--0--|

 

 

Bridge

G|-----------------------|-----------------------|

D|-----------------------|-----------------------|

A|-----------------------|-----------------------|

D|--8----6----8--6----8--|--6----8--6----8--6----|

 

G|-----------------------|-----------------------|

D|-----------------------|-----------------------|

A|-----------------------|-----------------------|

D|--8----6----8--6----8--|--6----8--6----8--6----|

 

G|--------------------------|--------------------------|

D|--------------------------|--------------------------|

A|--------------------------|--------------------------|

D|--3--3--3--3--3--3--3--3--|--3--3--3--3--3--3--3--3--|

 

G|--------------------------|--------------------------|

D|--------------------------|--------------------------|

A|--------------------------|--------------------------|

D|--3--3--3--3--3--3--3--3--|--3--3--3--3--3--3--3--3--|

 

G|-----------------------|-----------------------|

D|-----------------------|-----------------------|

A|-----------------------|-----------------------|

D|--8----6----8--6----8--|--6----8--6----8--6----|

 

G|-----------------------|-----------------------|

D|-----------------------|-----------------------|

A|-----------------------|-----------------------|

D|--8----6----8--6----8--|--6----8--6----8--6----|

 

G|--------------------------|--------------------------|

D|--------------------------|--------------------------|

A|--------------------------|--------------------------|

D|--3--3--3--3--3--3--3--3--|--3--3--3--3--3--3--3--3--|

 

x2

G|--------------------------|--------------------------|

D|--------------------------|--------------------------|

A|--------------------------|--------------------------|

D|--6--6--6--6--6--6--6--6--|--1--1--1--1--1--1--1--1--|

 

 

Intro

Verse

Chorus

Intro

Verse

Chorus

Bridge

Intro

Verse

Chorus

 

___________________________

http://tabs.foofighters.com

 

Return to my to my Foo Fighters bass tabs page

The Tablature is Copyright its respective owners.

Sign Up For My Newsletter
Subscribe | Unsubscribe

Site Map | Disclaimer | Privacy Policy | Media Kit | Submissions/Corrections

Website © 2000-2014 mattsmusicpage.com. All rights reserved.

Legal & DMCA: Matt's Music Page has been providing lyrics and tabs in a legal way, paying royalties each year to a few organizations. Then, all lyrics and tabs were removed from the site. Now, there's a new owner to the site, which purchased it August 26, 2014, and he is in negotiation to obtain licensing from BMI at the moment. If you have a specific DMCA request -- please do not hesitate to contact me via the contact button on top. I will do my very best to keep this site fully legal.

Get our toolbar!