Your One-Stop Source For
Music Lyrics
Bass and Guitar Tabs
and More...
Music Lyrics Bass and Guitar Tabs

 

Tabs of Foo Fighters Songs

Learn To Read Tab
Chords Handbook
Corrections & Additions
Get Official Tab
Foo Fighters tabs @ 911Tabs

 

Song - Generator

Artist - Foo Fighters

Album - There Is Nothing Left To Lose

Bassist - Nate Mendel

Tabbed By - Matt Anslow ( funkybassist@hotmail.com )

Tuning - Standard ( E-A-D-G )

 

 

Intro

 

G|-------------------------------------------------------------

D|-------------------------------------------------------------

A|--11-11-11-9-7-9-7-9-11----11-11-11-9-7-9-7-9-11-9-7-7-------

E|-------------------------------------------------------------

 

Break

G|-------------------------------------------------------------

D|-------------------------------------------------11----------

A|--11-11-11-9-7-9-7-9-11-9-7-7---11-11-11-11-12-14--11-12-12--

E|-------------------------------------------------------------

 

For these two bits, and the Outro, you can play it normally,

but it sounds much better if you have a talk box effects. I use a

ZOOM 506II Bass pedal on pre-set B3, if you have one, use it.

 

 

Verse (* = play about 12 times)

 

In the first verse, Nate plays this the first time.

G|--------------------------------------------5---------------

D|------------------------------------------3-----------------

A|----------------------------------5*--5-------5*------------

E|---5*--0-0-0-0--2*--0-0-0-0---------------------------------

 

On every other verse though, he plays this the first time.

G|------------------------------------------------------------

D|------------------------------------------------------------

A|-----------------------------5*----6-4-6-7-6-4-6-4-6-7-6-4--

E|----5*--0-0-0-0--2*-0-0-0-0---------------------------------

 

And the second part of each verse after the first, he plays this.

G|------------------------------------------------------------

D|------------------------------------------------------------

A|-----------------------------------6-4-6-7-6-4-6-4-6-7-6-4--

E|----5*--0-0-0-0--2*-0-0-0-0--5*-----------------------------

 

 

Chorus (* = play about 12 times.)

 

G|------------------------------------------------------------

D|------------------------------------------------------------

A|------------------------------------------------------------

E|-----5*---1*---2*---3---------------------------------------

 

 

Bridge

 

G|------------------------------------------------------------

D|------------------------------------------------------------

A|--7-7--5-4-2-0-4-0-2-4-0------------------------------------

E|------------------------------------------------------------

 

 

Outro

 

G|------------------------------------------------------------

D|---------------------------------------------------------11-

A|--11-11-11-9-7-9-7-9-11-9-7-7---11-11-11-9-7-9-7-9-11-14----

E|------------------------------------------------------------

 

Order-

 

Intro x 1

Break x 2

Verse x 1

Break x 2

Verse x 1

Chorus x 2

Break x 2

Verse x 1

Chorus x 2

Bridge x 6

Chorus x 4

Outro x 1

 

Nate plays a lot of variations that you can hear in the song,

especially in the verse. Just make them up or something,

you can't really hear then much under Dave's Guitar.

If you have any questions or corrections, E-mail me.

 

 

Return to my to my Foo Fighters bass tabs page

The Tablature is Copyright its respective owners.

Sign Up For My Newsletter
Subscribe | Unsubscribe

Site Map | Disclaimer | Privacy Policy | Media Kit | Submissions/Corrections

Website © 2000-2014 mattsmusicpage.com. All rights reserved.

Legal & DMCA: Matt's Music Page has been providing lyrics and tabs in a legal way, paying royalties each year to a few organizations. Then, all lyrics and tabs were removed from the site. Now, there's a new owner to the site, which purchased it August 26, 2014, and he is in negotiation to obtain licensing from BMI at the moment. If you have a specific DMCA request -- please do not hesitate to contact me via the contact button on top. I will do my very best to keep this site fully legal.

Get our toolbar!