Your One-Stop Source For
Music Lyrics
Bass and Guitar Tabs
and More...
Music Lyrics Bass and Guitar Tabs

 

Tabs of Foo Fighters Songs

Learn To Read Tab
Chords Handbook
Corrections & Additions
Get Official Tab
Foo Fighters tabs @ 911Tabs

Artist: Foo Fighters

Title: Come Back

Album: One by One

Bassist: Nate Mendal

 

Intro

G------------------------------------------------------------------

D------------------------------------------------------------------

A-4-444-----------2-222--------9\-4-444-----------2-222-------2-20-

E-------000-000-00------222-2-----------000-000-00------222-23-----

 

Verse

G------------------------------------------------------------------

D------------------------------------------------------------------

A-4-444-----------2-222--------9\-4-444-----------2-222-------2-20-

E-------000-000-00------222-2-----------000-000-00------222-23----- x2

 

G------------------------------------------------------------------

D------------------------------------------------------------------

A-4-444-------------222--------9\-4-444-----------2-222-------2-20-

E-------000-000---------222-2-----------000-000-00------222-23-----

 

Pre-Chorus 1

G------------------------------------------------------------------

D------------------------------------------------------------------

A------------------------------------------------------------------

E-5555555555555555555555555555555555555555555555555555555577777777-

 

Chorus 1

G----------------------------------------------------------

D----------------------------------------------------------

A-4-444-4444--------------------------------0-000-000022---

E-----------55--2-222-222244--0-000-000022----------------- x2

 

Verse 2 - play verse 1 then

G------------------------------------------------------------------

D------------------------------------------------------------------

A-4-444-----------2-222--------9\-4-444-----------2-222------------

E-------000-000-00------222-2-----------000-000-00------222-222-/5-

 

Pre-Chorus 2

G-----------------------------------------------------------------6666-

D---------------------------------------------------------99997799-----

A----------------------------------------------/121212-----------------

E-55555555555555555555555555555555-555555555555-------7777-------------

 

Chorus 2 - play chorus 1

 

Bridge

G-----------------------------------------------------------------

D-----------------------------------------------------------------

A---------------------------------7-777-77-77-7-7-7-777-77--7-9---

E-9-999-99-99-9-9-9-999-99-99-9-9-------------------------------7-

 

G--------------------------------------------------------------------

D--------------------------------------------------------------------

A---------------------------------7-777-77-77-7-7-7-777-77--7-9------

E-9-999-99-99-9-9-9-999-99-99-9-9-------------------------------7-5~-

 

No Bass till 4:19

Interlude

G---------------------------------

D---------------------------------

A-4---------------2---------------

E-------0---------------2--------- x12 (first 4 very quitley)

 

G-----------------------------------------------------------------

D-----------------------------------------------------------------

A-4-----2---------0---------------4-----2-------------------------

E-----------------------2-------------------------0-----2--------- x2

 

G-----------------------------------------------------------------

D-----------------------------------------------------------------

A-4-444-2-222-2-220-000-----------4-444-2-222-2-22----------------

E-----------------------2-222-2-22----------------0-000-2222-2-22-

 

G-----------------------------------------------------------------

D-----------------------------------------------------------------

A-4-444-2-222-2-220-000-----------4-444-2-222-2-22----------------

E-----------------------2-222-2-22----------------0-00002~--------

 

No bass till 6:34

Last Chorus

G--------

D--------

A--------

E-2/14\2-

 

G----------------------------------------------------------

D----------------------------------------------------------

A-4-444-4444--------------------------------0-000-000022---

E-----------55--2-222-222244--0-000-000022----------------- x2

 

Outro

G----------------

D----------------

A----------------

E-9-999-99-99-9\-

 

 

Return to my to my Foo Fighters bass tabs page

The Tablature is Copyright its respective owners.

Sign Up For My Newsletter
Subscribe | Unsubscribe

Site Map | Disclaimer | Privacy Policy | Media Kit | Submissions/Corrections

Website © 2000-2014 mattsmusicpage.com. All rights reserved.

Legal & DMCA: Matt's Music Page has been providing lyrics and tabs in a legal way, paying royalties each year to a few organizations. Then, all lyrics and tabs were removed from the site. Now, there's a new owner to the site, which purchased it August 26, 2014, and he is in negotiation to obtain licensing from BMI at the moment. If you have a specific DMCA request -- please do not hesitate to contact me via the contact button on top. I will do my very best to keep this site fully legal.

Get our toolbar!