Your One-Stop Source For
Music Lyrics
Bass and Guitar Tabs
and More...
Music Lyrics Bass and Guitar Tabs

 

Tabs of Foo Fighters Songs

Learn To Read Tab
Chords Handbook
Corrections & Additions
Get Official Tab
Foo Fighters tabs @ 911Tabs

Artist: Foo Fighters

Title: Burn Away

Album: One by One

Bassist: Nate Mendal

 

Intro

G----

D----

A-5~-

D---- x2

 

Pre Verse

G---------------------------

D---------------------------

A-----------------5-5555555-

D-77-5-5555555-77----------- x2

 

Verse

G-------------------------------------------

D-------------------------------------------

A-------------------------5-555555555555555-

D-77-5-555555555555555-77------------------- x3

 

G---------------------------------------------

D---------------------------------------------

A-------------------------5-------------------

D-77-5-555555555555555-77----9--7--5-7h9-2-00-

 

Chorus 1

G---------------------------------

D---------------------------------

A---------------------------------

D-5555----4444----2222---0000-2-4- x4

 

G-------------------------------------

D-------------------------------------

A-------------------55555555----------

D-55555555-77777777----------55555555- x2

 

G-------------------------------------------------------

D-------------------------------------------------------

A-------------------22222222-33333333-------------------

D-55555555-77777777-------------------55555555-22225555-

 

Chorus 2

G---------------------------------

D---------------------------------

A---------------------------------

D-5555----4444----2222---0000-2-4- x4

 

G--------------------------------------------------------------------------

D--------------------------------------------------------------------------

A-------------------55555555---------------------------55555555------------

D-55555555-77777777----------5555555555555555-77777777----------5557799/12-

 

G-------------------------------------------------------

D-------------------------------------------------------

A-------------------22222222-33333333-------------------

D-55555555-77777777-------------------55555555-22225555-

 

G---------------------------

D---------------------------

A-----------------5-5555555-

D-77-5-5555555-77-----------

 

Bridge

G-------------------------------------

D-------------------------------------

A-------------------------------------

D-99999----77777----55555----55555----

 

G-------------------------------------

D-------------------------------------

A-------------------------------------

D-99999----77577----555555---55555555-

 

G-------------------------------------

D------9-----------------------------

A-------------------------------------

D-9579--4h5p4-22---4-2-0-5----5555555-

 

Chorus 3

G---------------------------

D---------------------------

A-----------------5-5555555-

D-77-5-5555555-77----------- x3

 

G---------------------------

D---------------------------

A------------------5--------

E-7--5----------7-----------

 

 

Return to my to my Foo Fighters bass tabs page

The Tablature is Copyright its respective owners.

Sign Up For My Newsletter
Subscribe | Unsubscribe

Site Map | Disclaimer | Privacy Policy | Media Kit | Submissions/Corrections

Website © 2000-2014 mattsmusicpage.com. All rights reserved.

Legal & DMCA: Matt's Music Page has been providing lyrics and tabs in a legal way, paying royalties each year to a few organizations. Then, all lyrics and tabs were removed from the site. Now, there's a new owner to the site, which purchased it August 26, 2014, and he is in negotiation to obtain licensing from BMI at the moment. If you have a specific DMCA request -- please do not hesitate to contact me via the contact button on top. I will do my very best to keep this site fully legal.

Get our toolbar!

 

Hard Rock Pin Las Vegas 4th of july red white and blue guitar
$5.0
Hard Rock Pin Las Vegas 4th of july red white and blue guitar picture


Hard Rock Pin Hollywood Fl Bell Girl with dice luggage and guitar
$5.0
Hard Rock Pin Hollywood Fl Bell Girl with dice luggage and guitar picture


Hard Rock Pin Las Vegas King of Clubs Guitar rare only 3 lines of info on back
$5.0
Hard Rock Pin Las Vegas King of Clubs Guitar rare only 3 lines of info on back picture


Hard Rock Pin Edmonton guitar pin
$5.0
Hard Rock Pin Edmonton guitar pin picture


Lladro Guitar Boy #4614 - Beautiful Piece of Lladro
$109.0
Lladro Guitar Boy #4614 - Beautiful Piece of Lladro picture