Your One-Stop Source For
Music Lyrics
Bass and Guitar Tabs
and More...
Music Lyrics Bass and Guitar Tabs

 

The Tabs Are Below

Learn To Read Tab
Chords Handbook
Corrections & Additions
Get Official Tab
Fleetwood Mac tabs @ 911Tabs

 

YOU MAKE LOVING FUN

written by Christine McVie

performed by Fleetwood Mac

from the album The Dance

transcribed by ~*Sara*~ (FMacSNix@aol.com)

 

This is the Dance version of the song. This is as

accurate as I'm gonna get...just play it a lot while

listening to it and you'll get the jist of it :)

 

h = hammer on

p = pull off

/ = slide up

\ = slide down

 

 

E|-----------3p1-1-1-------1-1-1----------------------

B|-----------------------1-1-1-1h3--------------------

G|-0--------------------------------3-0--0---0--------

D|-----------------------------------------3----------

A|----------------------------------------------------

E|----------------------------------------------------

 

E|----------------------------------------------------

B|-------1-3p1----------------------1-----------------

G|---0-3------3-0-0--------0--0-----------------------

D|-3------------------------------3-3-----------------

A|----------------------------------------------------

E|----------------------------------------------------

 

E|----------------------------------------------------

B|--------------1-3p1--------------------1------------

G|-3--3--3-3-0-3-----3-0-0------0--0------------------

D|-------------------------------------3-3------------

A|----------------------------------------------------

E|----------------------------------------------------

 

E|----------------------------------------------------

B|----------------------------------------------------

G|-3--3-3--0-3-3-0-3----------------------------------

D|--------3-------------------------------------------

A|----------------------------------------------------

E|----------------------------------------------------

 

=======================================================

Chorus riff

(I hammer on, not slide)

E|-------------1----------1----1---------------1------

B|-1h3(or)-1/3---1----1h3---1h3--1-----1--1-1h3--1----

G|-----------------3---------------3--3------------3--

D|------------------3---------------3----------------3

A|----------------------------------------------------

E|----------------------------------------------------

=======================================================

 

E|----1-----------------------------------------------

B|-1h3--4-6-4-6--4p3-1-1h3-1--------------------------

G|--------------------3-----3-------------------------

D|----------------------------------------------------

A|----------------------------------------------------

E|----------------------------------------------------

 

Play chorus riff then...

 

E|----1-----------------------------------------------

B|-1h3--4-6-4-6-4-6-4-6-------------------------------

G|----------------------0-----------------------------

D|----------------------------------------------------

A|----------------------------------------------------

E|----------------------------------------------------

 

========================================================

First Solo

 

E|--------6-----6-8-8-8/10-8---8-8h10-6h8-------------

B|-8p6-6h8-8---8--------------------------8--8p6h8----

G|----------------------------------------------------

D|----------------------------------------------------

A|----------------------------------------------------

E|----------------------------------------------------

 

E|-15-15-15-15-15-15-15-15-13h15-15-15-15-15-15/20----

B|----------------------------------------------------

G|----------------------------------------------------

D|----------------------------------------------------

A|----------------------------------------------------

E|----------------------------------------------------

 

E|-20-20--20-20-18-15-15\13-13-13-15------------------

B|---------------------------------13-15-11-13--------

G|--------------------------------------------12-10---

D|----------------------------------------------------

A|----------------------------------------------------

E|----------------------------------------------------

 

E|-15-15-15--15-13-----------------13-13-13-13-13-13--

B|----------------15-13-11--11--11-11-11-13-15-13-----

G|----------------------------12------------------15--

D|----------------------------------------------------

A|----------------------------------------------------

E|----------------------------------------------------

 

=========================================================

 

Play chorus riff....

 

E|----1-----------------------------------------------

B|-1h3--4-6-4-6--4p3-1-1h3-1--------------------------

G|--------------------3-----3-------------------------

D|----------------------------------------------------

A|----------------------------------------------------

E|----------------------------------------------------

 

Play chorus riff again...

 

 

E|----1-----------------------------------------------

B|-1h3--4-6-4-6-4-6-4-6-------------------------------

G|----------------------0-----------------------------

D|----------------------------------------------------

A|----------------------------------------------------

E|----------------------------------------------------

 

 

E|----------------------------------3-3-3-3p1-1-------

B|--3--3--3-3-3-3-------------------------------------

G|--3--3--3-3-3-3----0----0-0-0-0-0-------------------

D|----------------3-3---------------------------------

A|----------------------------------------------------

E|----------------------------------------------------

 

E|-1-1-1--1-1-1---1-1---------------------------------

B|------------1h2-1-----------------------------------

G|-3-3-3--3-3-------3---------------------------------

D|----------------------------------------------------

A|----------------------------------------------------

E|----------------------------------------------------

 

=========================================================

Riff 2

 

E|-6-6-6-6-6-6-6-6-8----------------------------------

B|-6-6-6-6-6-6-6-6-6-8-8-8-8-8-8-8-8-8----------------

G|----------------------------------------------------

D|----------------------------------------------------

A|----------------------------------------------------

E|----------------------------------------------------

 

=========================================================

 

Repeat riff 2 then...

 

E|-6--8-8-8-8-10-10-10-10-10-10-10-10-8-6--------------

B|-6--8-8-8-8-11-11-11-11-11-11-11-11-8-6-8-8-6-8-8-6-8

G|----------------------------------------8-8-8-8-8-8-8

D|-----------------------------------------------------

A|-----------------------------------------------------

E|-----------------------------------------------------

 

 

E|-------8-8/10-10-10-10-10-10-10-10-10-10-10-10-8-6---

B|-8-6-8-8-8/11-11-11-11-11-11-11-11-11-11-11-11-8-6---

G|-8-8-8-----------------------------------------------

D|-----------------------------------------------------

A|-----------------------------------------------------

E|-----------------------------------------------------

 

Ending Solo |=====================

E|--------------------------------6--------------------

B|-8-8-8-8-8-8-8-8-8-8-8-8-8-8-6---8-6--6--------------

G|-8-8-8-8-8-8-8-8-8-8-8-8-8-8--------7--5-3-5--5-3-5--

D|-----------------------------------------------------

A|-----------------------------------------------------

E|-----------------------------------------------------

 

E|---------3---3-6--6-8-8-10-10-13-13-15--18--15-13--13

B|----3-6-6-3-6------------------------------------15--

G|-3-5-------------------------------------------------

D|-----------------------------------------------------

A|-----------------------------------------------------

E|-----------------------------------------------------

 

E|-15-13-----------------------------------------------

B|------15-13-11--11-----------------------------------

G|--------------12-------------------------------------

D|-----------------------------------------------------

A|-----------------------------------------------------

E|-----------------------------------------------------

=====================|

 

Then play this barre chord throughout the rest of the song:

 

E|-3--------------3---------------3---------------------

B|-3---- or just -3--- or even ---3---------------------

G|-3--------------3---------------3---------------------

D|-5--------------5-------------------------------------

A|-5----------------------------------------------------

E|-3----------------------------------------------------

 

 

 

Return to my to my Fleetwood Mac tabs page

The Tablature is Copyright its respective owners.

Sign Up For My Newsletter
Subscribe | Unsubscribe

Site Map | Disclaimer | Privacy Policy | Media Kit | Submissions/Corrections

Website © 2000-2014 mattsmusicpage.com. All rights reserved.

Legal & DMCA: Matt's Music Page has been providing lyrics and tabs in a legal way, paying royalties each year to a few organizations. Then, all lyrics and tabs were removed from the site. Now, there's a new owner to the site, which purchased it August 26, 2014, and he is in negotiation to obtain licensing from BMI at the moment. If you have a specific DMCA request -- please do not hesitate to contact me via the contact button on top. I will do my very best to keep this site fully legal.

Get our toolbar!

 

1939 LYRIC THEATRE New York PHOTO
$5.83
1939 LYRIC THEATRE New York PHOTO picture


Star Spangled Banner or Marines Hymn lyrics signed by WWII Charles W. Lindberg
$10.0
Star Spangled Banner or Marines Hymn lyrics signed by WWII Charles W. Lindberg picture


OLD LARGE HISTORIC PHOTO OF THE LYRIC THEATRE, SYDNEY c1930s, WAR BONDS BOOTH
$7.42
OLD LARGE HISTORIC PHOTO OF THE LYRIC THEATRE, SYDNEY c1930s, WAR BONDS BOOTH picture


SONG OF REVOLUTION CARD SET WITH 13 MOST FAVORED COMMUNIST SONGS LYRICS + NOTES
$24.99
SONG OF REVOLUTION CARD SET WITH 13 MOST FAVORED COMMUNIST SONGS LYRICS + NOTES picture


OLD LARGE HISTORIC PHOTO OF THE LYRIC THEATRE, SYDNEY c1930s, WAR LOANS BOOTH
$7.42
OLD LARGE HISTORIC PHOTO OF THE LYRIC THEATRE, SYDNEY c1930s, WAR LOANS BOOTH picture