Your One-Stop Source For
Music Lyrics
Bass and Guitar Tabs
and More...
Music Lyrics Bass and Guitar Tabs

 

The Tabs Are Below

Learn To Read Tab
Chords Handbook
Corrections & Additions
Get Official Tab
Fleetwood Mac tabs @ 911Tabs

 

MONDAY MORNING

written by Lindsey Buckingham

performed by Fleetwood Mac

from the album Fleetwood Mac Live

transcribed by Doolie99@aol.com

 

Capo on 4th fret

 

CHORDS:

 

VERSE:

A D A Asus4 A E E A A A D D A A A E(8X)

A D A Asus4 A E E A A A D D A A A (A) E(4X) D(4X) E(4X) D(4X)

 

chords:

A: x02220

D: xx0232

Asus4: x02230

E: 022100

 

CHORUS:

A A D D A A D D E(4X) A A D D A A E

 

 

SOLO:

 

e|-5-5-5-5-5---------------------------------------|

B|-----------5-5-5-5b-2-----2-3(b)-3p2-------------|

G|----------------------4-4------------4-2-4b4-2-2-|

D|-------------------------------------------------|

A|-------------------------------------------------|

E|-------------------------------------------------|

 

e|-10-10-10h12-12b12-10-9-9h10-12-12b12p10-12b12p10----|

B|--------------------------------------------------10-|

G|-----------------------------------------------------|

D|-----------------------------------------------------|

A|-----------------------------------------------------|

E|-----------------------------------------------------|

 

e|-----12-----12-----12-----12-----12-----12-----12-----12-----12----12/-|

B|-12b----12b----12b----12b----12b----12b----12b----12b----12b----12b----|

G|-----------------------------------------------------------------------|

D|-----------------------------------------------------------------------|

A|-----------------------------------------------------------------------|

E|-----------------------------------------------------------------------|

 

 

 

Return to my to my Fleetwood Mac tabs page

The Tablature is Copyright its respective owners.

Sign Up For My Newsletter
Subscribe | Unsubscribe

Site Map | Disclaimer | Privacy Policy | Media Kit | Submissions/Corrections

Website © 2000-2014 mattsmusicpage.com. All rights reserved.

Legal & DMCA: Matt's Music Page has been providing lyrics and tabs in a legal way, paying royalties each year to a few organizations. Then, all lyrics and tabs were removed from the site. Now, there's a new owner to the site, which purchased it August 26, 2014, and he is in negotiation to obtain licensing from BMI at the moment. If you have a specific DMCA request -- please do not hesitate to contact me via the contact button on top. I will do my very best to keep this site fully legal.

Get our toolbar!