Your One-Stop Source For
Music Lyrics
Bass and Guitar Tabs
and More...
Music Lyrics Bass and Guitar Tabs

 

The Tabs Are Below

Learn To Read Tab
Chords Handbook
Corrections & Additions
Get Official Tab
Fleetwood Mac tabs @ 911Tabs

 

GYPSY

written by Stevie Nicks

performed by Fleetwood Mac

from the album Mirage

transcribed by Mark Koppenhofer

 

Legend

----------

1x = # times to play certain part

p = pull

 

Intro solo

E |---------------------------------------------------------------------------------------------------------------------

B |---------------------------------------------------------------------------------------------------------------------

G |---------------------------------------------------------------------------------------------------------------------

D |----------------2---3-----3--3--3---3--3----2---2--2--2---2--2------------------------------------------2--3---------

A |-------3---5-----------------------------------------------------------5---5---5---5--5---3---3---3--5---------------

E |---------------------------------------------------------------------------------------------------------------------

 

 

End solo

E |---------------10---13---10------------------------------------10---13---10------------------------------------------

B |--10---13----------------------13---10------------10---13---------------------13---10----------10--------------------

G |----------------------------------------------12------------------------------------------------12-------------------

D |---------------------------------------------------------------------------------------------------------------------

A |---------------------------------------------------------------------------------------------------------------------

E |---------------------------------------------------------------------------------------------------------------------

Capo guitar at V

So I'm back to the vel vet underground Back to the floor

C x3 Csus2 x3 Am7 x1 C/G x4 Fsus2 x4 G

E |--------------------------------------------------------------------------------------------------------------------

B |---1--------------1----------------------1-------------------1---------------------------------------------------0--

G |---0--------------0----------------------0-------------------0--------------------------0------------------------0--

D |---2--------------0----------------------2-------------------2--------------------------4------------------------4--

A |---3--------------2----------------------0-------------------3--------------------------3------------------------3--

E |------------------------------------------------------------------------------------------1------------------------1---------

Now it starts over with this pattern for rest of song Fsus2 x4,G,C x3,Csus2 x3,Am7 x1,C/G x4

 

Here is the outro solo repeat this whole part here 4x then play this 2x

E |--15p13------------13-------15p13------------13-------15p13-----------|-------13----------------13--13------------

B |------------15p13-------13------------13p15-------15------------15p13-|--13-------13--13p15-----------15p13--

G |---------------------------------------------------------------------------------------------------------------------

D |---------------------------------------------------------------------------------------------------------------------

A |---------------------------------------------------------------------------------------------------------------------

E |---------------------------------------------------------------------------------------------------------------------

 

 

end Now this 15x then this 4x Now this 2x to end it

E |--13--13-------13--13-------13--13--|-------13--13--|-------13--13-------13--13-|-----------13--13------13--13--

B |------------13------------13------------|--13------------|-----------------13-----------|--13p15----------13---------

G |--------------------------------------------------------------14-----------------------------------------------------

D |---------------------------------------------------------------------------------------------------------------------

A |---------------------------------------------------------------------------------------------------------------------

E |---------------------------------------------------------------------------------------------------------------------

 

 

 

 

Return to my to my Fleetwood Mac tabs page

The Tablature is Copyright its respective owners.

Sign Up For My Newsletter
Subscribe | Unsubscribe

Site Map | Disclaimer | Privacy Policy | Media Kit | Submissions/Corrections

Website © 2000-2014 mattsmusicpage.com. All rights reserved.

Legal & DMCA: Matt's Music Page has been providing lyrics and tabs in a legal way, paying royalties each year to a few organizations. Then, all lyrics and tabs were removed from the site. Now, there's a new owner to the site, which purchased it August 26, 2014, and he is in negotiation to obtain licensing from BMI at the moment. If you have a specific DMCA request -- please do not hesitate to contact me via the contact button on top. I will do my very best to keep this site fully legal.

Get our toolbar!

 

1939 LYRIC THEATRE New York PHOTO
$5.83
1939 LYRIC THEATRE New York PHOTO picture


Star Spangled Banner or Marines Hymn lyrics signed by WWII Charles W. Lindberg
$10.0
Star Spangled Banner or Marines Hymn lyrics signed by WWII Charles W. Lindberg picture


OLD LARGE HISTORIC PHOTO OF THE LYRIC THEATRE, SYDNEY c1930s, WAR BONDS BOOTH
$7.42
OLD LARGE HISTORIC PHOTO OF THE LYRIC THEATRE, SYDNEY c1930s, WAR BONDS BOOTH picture


SONG OF REVOLUTION CARD SET WITH 13 MOST FAVORED COMMUNIST SONGS LYRICS + NOTES
$24.99
SONG OF REVOLUTION CARD SET WITH 13 MOST FAVORED COMMUNIST SONGS LYRICS + NOTES picture


OLD LARGE HISTORIC PHOTO OF THE LYRIC THEATRE, SYDNEY c1930s, WAR LOANS BOOTH
$7.42
OLD LARGE HISTORIC PHOTO OF THE LYRIC THEATRE, SYDNEY c1930s, WAR LOANS BOOTH picture