Your One-Stop Source For
Music Lyrics
Bass and Guitar Tabs
and More...
Music Lyrics Bass and Guitar Tabs

 

The Tabs Are Below

Learn To Read Tab
Chords Handbook
Corrections & Additions
Get Official Tab
Fleetwood Mac tabs @ 911Tabs

 

Fleetwood Mac - Go Your Own Way

 

[This was created with TabIt for Windows version 1.3]

 

E :----------------------- 3|----------------|----------------|

B :----------------------- ||5-5-5-5---------|--3-------------|

G :-----------------------*||5-5-5-5---5-3-3-|--3-------------|

D :10---10-10-10-10-10-10-*||5-5-5-5-7-5-3-3-|--3-3-3-3-3---3-|

A :-8----8--8--8--8--8--8- ||3-3-3-3-3-3-1-1-|--1-1-1-1-1-1-1-|

E :----------------------- ||----------------|----------------|

 

E :----------------------- 3|----------------|----------------|

B :----------------------- ||----------------|----------------|

G :-----------------------*||----------------|----------------|

D :-----------------------*||5-5-5-5-5-5-5-3-|3-3-3-3-3-3-3-3-|

A :-3----3--3--3--3--3--3- ||3-3-3-3-3-3-3-1-|1-1-1-1-1-1-1-1-|

E :-1----1--1--1--1--1--1- ||----------------|----------------|

 

=============================================================================

 

E :----------------|------------------|

B :----------------|------------6-----|

G :----------------|3-3---3-3-x-5-----|

D :3-3-3-3-3-3-3-3-|3-3-3-3-3-x-3---10|

A :1-1-1-1-1-1-1-1-|1-1-1-1-1-x------8|

E :----------------|------------------|

 

E :----------------|------------------|

B :----------------|------------------|

G :----------------|------------------|

D :3-3-3-3-3-3-3-3-|3-3-3-3-3-3-3-----|

A :1-1-1-1-1-1-1-1-|1-1-1-1-1-1-1-3---|

E :----------------|--------------1---|

 

=============================================================================

 

E :------------------------------------|

B :------------10---11-----10----------|

G :------------10---10-----10---10-----|

D :--10---10---10---10-----10---10---10|

A :---8----8----8----8------8----8----8|

E :------------------------------------|

 

E :------------------------------------|

B :------------------------------------|

G :------------------------------------|

D :------------------------------------|

A :3----3----3----3----3-3----3----3---|

E :1----1----1----1----1-1----1----1---|

 

=============================================================================

 

E :---------------------------------------|

B :---------------------------------------|

G :--------------------------------10-----|

D :--10---10---10---10---10---10---10---10|

A :---8----8----8----8----8----8----8----8|

E :---------------------------------------|

 

E :---------------------------------------|

B :---------------------------------------|

G :---------------------------------------|

D :---------------------------------------|

A :3----3----3----3----3----3----3----3---|

E :1----1----1----1----1----1----1----1---|

 

=============================================================================

 

E :---------------------------------------|

B :---------------------------------------|

G :--10--------10---10--------10--------10|

D :--10---10---10---10---10---10---10---10|

A :---8----8----8----8----8----8----8----8|

E :---------------------------------------|

 

E :---------------------------------------|

B :---------------------------------------|

G :---------------------------------------|

D :---------------------------------------|

A :3----3----3----3----3----3----3----3---|

E :1----1----1----1----1----1----1----1---|

 

=============================================================================

 

E :------------------------------------|--------------------------|

B :-------------------------------6---6|--6-5---5-----5-------3---|

G :--10--------10---10---10---5---5---5|--5-5---5-----5---3---3---|

D :--10---10---10---10---10---5---5---5|--5-5---5-----5---3---3---|

A :---8----8----8----8----8---3---3---3|--3-3---3-----3---1---1---|

E :------------------------------------|--------------------------|

 

E :------------------------------------|--------------------------|

B :------------------------------------|--------------------------|

G :------------------------------------|--------------------------|

D :-----------------------------5---5--|5-----5---5-5---5---5---3-|

A :3----3----3----3----3----3---3---3--|3-----3---3-3---3---3---1-|

E :1----1----1----1----1----1----------|--------------------------|

 

=============================================================================

 

E :-----------------------------|--------------------------|

B :-----------------------------|--------------------------|

G :----------3-----------3-----3|--3-------3---3-----3-----|

D :--3---3---3---3---3---3-----3|--3---3---3---3-----3-----|

A :--1---1---1---1---1---1-----1|--1---1---1---1-----1-----|

E :-----------------------------|--------------------------|

 

E :-----------------------------|--------------------------|

B :-----------------------------|--------------------------|

G :-----------------------------|--------------------------|

D :3---3---3---3---3---3---3-3--|3---3---3---3---3-3---3-3-|

A :1---1---1---1---1---1---1-1--|1---1---1---1---1-1---1-1-|

E :-----------------------------|--------------------------|

 

=============================================================================

 

E :-------------------|---------------------|--5-5---5---5---|

B :-------------------|-----------10---10---|--6-6---6---6---|

G :3---3---3-3/-10-10-|10---10-10-10---10-x-|--7-7---7---7---|

D :3---3-3-3-3/-10-10-|10---10-10-10---10-x-|7-----7-7---7---|

A :1---1-1-1-1/--8--8-|-8----8--8--8----8-x-|5-----5-5---5-0-|

E :-------------------|---------------------|----------------|

 

E :-------------------|---------------------|----------------|

B :-------------------|---------------------|----------------|

G :-------------------|---------------------|----------------|

D :3-3-3-3-3-3---3----|---------------------|----------------|

A :1-1-1-1-1-1---1--3-|-3-3--3--3--3-3--3-3-|----------------|

E :-----------------1-|-1-1--1--1--1-1--1-1-|----------------|

 

=============================================================================

 

E :---------------|

B :----3---3-3----|

G :3---3---3-3---5|

D :3---3-3-3-3-3-5|

A :1---1-1-1-1-1-3|

E :---------------|

 

E :---------------|

B :---------------|

G :---------------|

D :---------------|

A :---------------|

E :---------------|

 

 

 

Return to my to my Fleetwood Mac tabs page

The Tablature is Copyright its respective owners.

Sign Up For My Newsletter
Subscribe | Unsubscribe

Site Map | Disclaimer | Privacy Policy | Media Kit | Submissions/Corrections

Website © 2000-2014 mattsmusicpage.com. All rights reserved.

Get our toolbar!