Your One-Stop Source For
Music Lyrics
Bass and Guitar Tabs
and More...
Music Lyrics Bass and Guitar Tabs

 

The Tabs Are Below

Learn To Read Tab
Chords Handbook
Corrections & Additions
Get Official Tab
Fleetwood Mac tabs @ 911Tabs

 

EYES OF THE WORLD

written by Lindsey Buckingham

performed by Fleetwood Mac

from the album Mirage

transcribed by ???????

 

Intro:Bb Eb F Bb

/ / / / / / / / / / / / / / / / / / / /

 

 

Eb F Bb

/ / / / / / / / / / / /

 

E|-------------------------------------------|

B|------4---6----8----------------------8----|

G|--7---5---7-------10--8--7-----------------|

D|--8------------------------10--8--7--------|

A|-------------------------------------------|

E|-------------------------------------------|

 

 

E|-------------------------------------------|

B|-------------------------------------------|

G|--10--7--8---------7-----------7-----7-----|

D|------------10--7-----8--7--8-----8-----8--|

A|-------------------------------------------|

E|-------------------------------------------|

(Repeat)

 

Bb Eb F Bb

I'm telling you people tell you no lie / / / / / / /

 

Eb F Bb

My heart was breakin', I'll tell you why / / / / / / / /

 

Eb F Bb

Back and forth lies unfurl / / / / / /

 

Eb F Bb

In the eyes, in the eyes, in the eyes of the world. / / / / / / / /

 

F Eb Bb F Bb

(Eyes, eyes, eyes, eyes,

 

F Eb Bb F Bb

eyes, eyes, eyes, eyes)

 

 

Bb Eb F Bb

Monday's children are filled with face / / / / / / / /

 

Eb F Bb

Tuesday's children are filled with grace / / / / / / / /

 

Eb F Bb

Back and forth lies unfurl / / / / / /

 

Eb F Bb

In the eyes, in the eyes, in the eyes of the world / / / / / / / /

 

 

F Eb Bb F Bb

(Eyes, eyes, eyes, eyes,

 

F Eb Bb F Bb

eyes, eyes, eyes, eyes)

 

 

 

Outro: Bb Eb F Bb

/ / / / / / / / / / / / / / / / / / / /

 

 

Eb F Bb

/ / / / / / / / / / / / (Repeat and fade out)

 

 

Chord shapes to use:

 

 

Bb or Bb Eb or Eb F or F

E|----1------1--------3-----6-------1----1----|

B|----3------3--------4-----8-------1----1----|

G|----3------3--------3-----8-------2----2----|

D|----3------x -------1-----x-------3----3----|

A|----1------x -------x-----x-------3----x----|

E|----x------x--------x-----x-------1----x----|

 

 

 

Return to my to my Fleetwood Mac tabs page

The Tablature is Copyright its respective owners.

Sign Up For My Newsletter
Subscribe | Unsubscribe

Site Map | Disclaimer | Privacy Policy | Media Kit | Submissions/Corrections

Website © 2000-2014 mattsmusicpage.com. All rights reserved.

Legal & DMCA: Matt's Music Page has been providing lyrics and tabs in a legal way, paying royalties each year to a few organizations. Then, all lyrics and tabs were removed from the site. Now, there's a new owner to the site, which purchased it August 26, 2014, and he is in negotiation to obtain licensing from BMI at the moment. If you have a specific DMCA request -- please do not hesitate to contact me via the contact button on top. I will do my very best to keep this site fully legal.

Get our toolbar!