Your One-Stop Source For
Music Lyrics
Bass and Guitar Tabs
and More...
Music Lyrics Bass and Guitar Tabs

 

The Tabs Are Below

Learn To Read Tab
Chords Handbook
Corrections & Additions
Get Official Tab
Fleetwood Mac tabs @ 911Tabs

 

DON’T LET ME DOWN AGAIN

written by Lindsey Buckingham

performed by Fleetwood Mac

originally from the album Buckingham Nicks

this version from Fleetwood Mac Live

transcribed by Joshua Shank

 

I didn’t tab out the solo and I’m not sure it’s EXACTLY what Lindsey

plays but it’s REALLY close and it sounds good the whole way through.

 

Tuning=EADGBe

 

Main riff: (just remember that the open low As are the bass note)

e|-------------|-------------|---------------------|

B|-2-0---------|-2-0---------|-2-0---------0-------|

G|-----2---2---|-----2---2---|-----2---2-----2-----|

D|-------2-----|-------2-----|-------2-------------|

A|-0-0-------0-|-0-0-------0-|-0-0-------0-0-0-0-0-|

E|-------------|-------------|---------------------|

 

Chorus riff:

e|-------------------------------------------|

B|-------------------1b-------------------1b-|

G|---2---2---2---2--------2---2---2---2------| Back to

D|---0---0---0---0--------0---0---0---0------| main riff

A|-------------------------------------------|

E|-3---3---3---3---3----2---2---2---2---2----|

 

Lyrics:

Baby, baby don't treat me so bad

I'm the best boy that you ever had

You wanna leave now and find a new start

It's gonna kill me if you break my heart

 

Ooh, once you let me down again

Ooh, you're just bound to see the end

 

Baby, baby don't treat me this way

I'm gonna make it again someday

There's just one thing I'd like you to know

I got no more to lose if you go

 

Ooh, once you let me down again

Ooh, you're just bound to see the end

 

Return to my to my Fleetwood Mac tabs page

The Tablature is Copyright its respective owners.

Sign Up For My Newsletter
Subscribe | Unsubscribe

Site Map | Disclaimer | Privacy Policy | Media Kit | Submissions/Corrections

Website © 2000-2014 mattsmusicpage.com. All rights reserved.

Legal & DMCA: Matt's Music Page has been providing lyrics and tabs in a legal way, paying royalties each year to a few organizations. Then, all lyrics and tabs were removed from the site. Now, there's a new owner to the site, which purchased it August 26, 2014, and he is in negotiation to obtain licensing from BMI at the moment. If you have a specific DMCA request -- please do not hesitate to contact me via the contact button on top. I will do my very best to keep this site fully legal.

Get our toolbar!