Your One-Stop Source For
Music Lyrics
Bass and Guitar Tabs
and More...
Music Lyrics Bass and Guitar Tabs

 

The Tabs Are Below

Learn To Read Tab
Chords Handbook
Corrections & Additions
Get Official Tab
Fastball tabs @ 911Tabs

Song - Sooner Or Later

Album - All The Pain Money Can Buy

 

Tabbed By Angelo Ricco - mailto:fidget@nt.net

 

--INTRO--

e----|------------------|1-------------|1-------------|---------

B----|1-----------------|--------------|--------------|---------

G----|------------------|--3-----------|-2------------|---------

D----|-2----------------|--------------|--------------|--3------

A----|--3---------------|--------------|--------------|---------

E----|------------------|--------------|--------------|---------

-repeat until verse

 

--VERSE--

C F C

I'm gonna get under your skin

F

Sooner or later

C F C

I'll find the key that lets me in

F

Sooner or later

D F C, D#, F C, D#, F

Yeah 'cause you just can't keep me down

D F C, D#, F C, D#, F

You 'cause you just can't keep me down

 

--VERSE 2--

C F C

I'm gonna take my time all right

F

Sonner or later

C F C

You gonna let me treat you right

F

Sooner or later

D F C, D#, F C, D#, F

Yeah 'cause you just can't keep me down

C F

Oh if you'd only give me

 

--BRIDGE--

Am G C

Time is really all that I need

F

To push it through

D

To make you see

G

I'll make you see

 

--VERSE 3--

(Play same as the first two verses!)

I'm gonna take my time all right

Sooner or later

You gonna let me treat you righ

Yeah 'cause you just can't keep me down

Yeah 'cause you just can't keep me down

 

--BRIDGE 2--

(Play same as the first Bridge!)

Time is really all that I need

To push it through

To make you see

I'll make you see

 

--OUTRO--

(Play same as the Intro!)

e----|------------------|1-------------|1-------------|---------

B----|1-----------------|--------------|--------------|---------

G----|------------------|--3-----------|-2------------|---------

D----|-2----------------|--------------|--------------|--3------

A----|--3---------------|--------------|--------------|---------

E----|------------------|--------------|--------------|---------

 

 

IF YOU HAVE ANY QUESTIONS OR COMMENTS ABOUT MY TABS,

PLEASE EMAIL ME AT fidget@nt.net

 

Return to my to my Fastball tabs page

The Tablature is Copyright its respective owners.

Sign Up For My Newsletter
Subscribe | Unsubscribe

Site Map | Disclaimer | Privacy Policy | Media Kit | Submissions/Corrections

Website © 2000-2014 mattsmusicpage.com. All rights reserved.

Legal & DMCA: Matt's Music Page has been providing lyrics and tabs in a legal way, paying royalties each year to a few organizations. Then, all lyrics and tabs were removed from the site. Now, there's a new owner to the site, which purchased it August 26, 2014, and he is in negotiation to obtain licensing from BMI at the moment. If you have a specific DMCA request -- please do not hesitate to contact me via the contact button on top. I will do my very best to keep this site fully legal.

Get our toolbar!