Your One-Stop Source For
Music Lyrics
Bass and Guitar Tabs
and More...
>Music Lyrics Bass and Guitar Tabs

 

The Tabs Are Below

Learn To Read Tab
Chords Handbook
Corrections & Additions
Get Official Tab
Everclear tabs @ 911Tabs

This is the guitar part to You Make Me Feel Like A Whore, By everclear

(May not be right, but it sure sounds it)

[-----------------------------------------------]

[-----------------5---5----X--X--------------]

[-----------------7---7-----X--X-------------] Once

[-----------------7---7-----X--X-------------]

[-----------------------------------------------]

[-----------------------------------------------]

 

[---------------------------------------------------]

[--------5-5------3-3----------5-5--X----------]

[--------7-7------5-5----------7-7--X----------] 4 Times

[--------7-7------5-5----------7-7--X----------]

[---------------------------------------------------]

[---------------------------------------------------]

 

[-------------------------------------------------------------------5--5-------------------]

[--------5-5--------3-3---------2-2------X-X-----2-2--------7--7----5-5-----------]

[--------7-7--------5-5---------2-2------X-X-----4-4--------7--7----7-7-----------]

[--------7-7--------5-5---------2-2------X-X-----4-4------------------7-7-----------] 4 Times

[--------------------------------------------------------------------------------------------]

[--------------------------------------------------------------------------------------------]

 

Bass part is the same as top

 

Bass plays during the middle

 

Chorus

 

[---------3-3-3-3-3-3----5-5-5-5-5-5----1-1-1-1-1-1---5-5-5-5-5-5-------]

[---------5-5-5-5-5-5----7-7-7-7-7-7----1-1-1-1-1-1---5-5-5-5-5-5-------]

[---------5-5-5-5-5-5----7-7-7-7-7-7----1-1-1-1-1-1---5-5-5-5-5-5-------] _________

[-----------------------------------------------------------------------------------------] |

[-----------------------------------------------------------------------------------------] |

[-----------------------------------------------------------------------------------------] |

<---

[---------3-3-3-3-3-3----5-5-5-5-5-5--]

[---------5-5-5-5-5-5----7-7-7-7-7-7--]

[---------5-5-5-5-5-5----7-7-7-7-7-7--]

[----------------------------------------------] Once

[----------------------------------------------]

[----------------------------------------------]

 

Then back to.....

 

[-------------------------------------------------------------------5--5-------------------]

[--------5-5--------3-3---------2-2------X-X-----2-2--------7--7----5-5-----------]

[--------7-7--------5-5---------2-2------X-X-----4-4--------7--7----7-7-----------]

[--------7-7--------5-5---------2-2------X-X-----4-4------------------7-7-----------] 4 Times

[--------------------------------------------------------------------------------------------]

[--------------------------------------------------------------------------------------------]

 

Next two choruses

 

[---------3-3-3-3-3-3----5-5-5-5-5-5----1-1-1-1-1-1---5-5-5-5-5-5-------]

[---------5-5-5-5-5-5----7-7-7-7-7-7----1-1-1-1-1-1---5-5-5-5-5-5-------]

[---------5-5-5-5-5-5----7-7-7-7-7-7----1-1-1-1-1-1---5-5-5-5-5-5-------] _________

[-----------------------------------------------------------------------------------------] |

[-----------------------------------------------------------------------------------------] |

[-----------------------------------------------------------------------------------------] |

<---

 

[--------5-5-5-5-5-5----6-6-6-6-6-6----7-7-7-7-7-7----7-7-7-7-7-7-------]

[--------7-7-7-7-7-7----8-8-8-8-8-8----9-9-9-9-9-9----9-9-9-9-9-9-------]

[--------7-7-7-7-7-7----8-8-8-8-8-8----9-9-9-9-9-9----9-9-9-9-9-9-------] _________

[-----------------------------------------------------------------------------------------] |

[-----------------------------------------------------------------------------------------] |

[-----------------------------------------------------------------------------------------] |

<---

 

[---------3-3-3-3-3-3----5-5-5-5-5-5--]

[---------5-5-5-5-5-5----7-7-7-7-7-7--]

[---------5-5-5-5-5-5----7-7-7-7-7-7--]

[----------------------------------------------]

[----------------------------------------------]

[----------------------------------------------]

 

Thanks, i hoped you enjoed it. If you have any questions, just E-mail me at AmazRando 0r McCarnicle

 

Thanx

 

 

Return to my to my Everclear tabs page

The Tablature is Copyright its respective owners.

Sign Up For My Newsletter
Subscribe | Unsubscribe

Site Map | Disclaimer | Privacy Policy | Media Kit | Submissions/Corrections

Website © 2000-2014 mattsmusicpage.com. All rights reserved.

Legal & DMCA: Matt's Music Page has been providing lyrics and tabs in a legal way, paying royalties each year to a few organizations. Then, all lyrics and tabs were removed from the site. Now, there's a new owner to the site, which purchased it August 26, 2014, and he is in negotiation to obtain licensing from BMI at the moment. If you have a specific DMCA request -- please do not hesitate to contact me via the contact button on top. I will do my very best to keep this site fully legal.

Get our toolbar!

 

OLD LARGE HISTORIC PHOTO OF THE LYRIC THEATRE, SYDNEY c1930s, WAR LOANS BOOTH
$5.0
OLD LARGE HISTORIC PHOTO OF THE LYRIC THEATRE, SYDNEY c1930s, WAR LOANS BOOTH picture


OLD LARGE HISTORIC PHOTO OF THE LYRIC THEATRE, SYDNEY c1930s, WAR BONDS BOOTH
$5.77
OLD LARGE HISTORIC PHOTO OF THE LYRIC THEATRE, SYDNEY c1930s, WAR BONDS BOOTH picture


Lied der Deutschen "Deutsche Frauen, Deutsche Treue" Liedtext, Lyrics
$4.0
Lied der Deutschen


Hab' Sonne im Herzen Liedtext Lyrics
$4.0
Hab' Sonne im Herzen Liedtext Lyrics picture


Alaki lyrics reporter - 2002/10 Nobuyoshi Araki (Author) Contents (From "BOOK" d
$89.0
Alaki lyrics reporter - 2002/10 Nobuyoshi Araki (Author) Contents (From