Your One-Stop Source For
Music Lyrics
Bass and Guitar Tabs
and More...
Music Lyrics Bass and Guitar Tabs

 

The Tabs Are Below

Learn To Read Tab
Chords Handbook
Corrections & Additions
Get Official Tab
Everclear tabs @ 911Tabs

Volvo Driving Soccer Mom

Slow Motion Daydream

Lyrics by Alexakis

Music by Everclear

Tabbed by JR

 

e-------

b-------

g-------

d-10-10-

a-10-10- play this five times

e-8--8--

na na

 

Verse

 

e----------------------------------

b----------------------------------

g----------------------------------

d-10-10-x-x-7-7-x-x-5-5-x-x-3-3-x-x

a-10-10-x-x-7-7-x-x-5-5-x-x-3-3-x-x play this three times

e-8--8--x-x-5-5-x-x-3-3-x-x-1-1-x-x

 

Buildup

 

e---------------------------------

b---------------------------------

g--------------------------------- play this one time

d-3-3-3-3-3-3-3-3-5-5-5-5-7-7-7-7-

a-3-3-3-3-3-3-3-3-5-5-5-5-7-7-7-7-

e-1-1-1-1-1-1-1-1-1-3-3-3-5-5-5-5-

 

Verse

 

e----------------------------------

b----------------------------------

g----------------------------------

d-10-10-x-x-7-7-x-x-5-5-x-x-3-3-x-x play this 4 times

a-10-10-x-x-7-7-x-x-5-5-x-x-3-3-x-x

e-8--8--x-x-5-5-x-x-3-3-x-x-1-1-x-x

 

buildup

 

e---------------------------------

b---------------------------------

g---------------------------------

d-3-3-3-3-3-3-3-3-5-5-5-5-7-7-7-7-

a-3-3-3-3-3-3-3-3-5-5-5-5-7-7-7-7- play this once

e-1-1-1-1-1-1-1-1-3-3-3-3-5-5-5-5-

 

Chorus

 

e----------------------------------

b----------------------------------

g----------------------------------

d-10-10-x-x-6-6-x-x-5-5-x-x-3-3-x-x

a-10-10-x-x-6-6-x-x-5-5-x-x-3-3-x-x 5 times

e-8--8--x-x-4-4-x-x-3-3-x-x-1-1-x-x

 

THEN REPEAT ALL OF THE ABOVE WITH JUST ONE BUILDUP TO THE CHORUS

 

e-------------------------------------------------

b-------------------------------------------------

g-------------------------10-10-10-10-10-10-10-10-

d-10-10-10-10-10-10-10-10-10-10-10-10-10-10-10-10-

a-10-10-10-10-10-10-10-10-8--8--8--8--8--8--8--8--

e-8--8--8--8--8--8--8--8--------------------------

 

e-----------------------------------------

b-----------------------------------------

g-7-7-7-7-7-7-7-7-10-10-10-10-10-10-10-10- play all of this 3 times

d-7-7-7-7-7-7-7-7-10-10-10-10-10-10-10-10-

a-5-5-5-5-5-5-5-5-8--8--8--8--8--8--8--8--

e-----------------------------------------

 

then it does this

 

e-------------

b-------------

g------------- then is plays the above 3 more times

d-11-11-10-10-

a-11-11-10-10-

e-9--9--8--8--

 

Then its goes like this

 

e------------------------------------------------------------------------

b------------------------------------------------------------------------

g---------------------------10-10-x-x-10-10-x-x-7-7-x-x-7-7-x-x-10-10-x-x

d-11-11-10-10-x-x-10-10-x-x-10-10-x-x-10-10-x-x-7-7-x-x-7-7-x-x-10-10-x-x

a-11-11-10-10-x-x-10-10-x-x-8--8--x-x-8--8--x-x-5-5-x-x-5-5-x-x-8--8--x-x

e-9--9--8--8--x-x-8--8--x-x ---------------------------------------------

 

e----------

b----------

g----------

d-10-10-x-x play all of this once

a-10-10-x-x

e-8--8--x-x

 

then play the chorus, then it does this.

 

e----------

b----------

g----------

d-10-10-x-x

a-10-10-x-x play this five times and let the C chord ring out.

e-8--8--x-x

na na

 

Return to my to my Everclear tabs page

The Tablature is Copyright its respective owners.

Sign Up For My Newsletter
Subscribe | Unsubscribe

Site Map | Disclaimer | Privacy Policy | Media Kit | Submissions/Corrections

Website © 2000-2014 mattsmusicpage.com. All rights reserved.

Legal & DMCA: Matt's Music Page has been providing lyrics and tabs in a legal way, paying royalties each year to a few organizations. Then, all lyrics and tabs were removed from the site. Now, there's a new owner to the site, which purchased it August 26, 2014, and he is in negotiation to obtain licensing from BMI at the moment. If you have a specific DMCA request -- please do not hesitate to contact me via the contact button on top. I will do my very best to keep this site fully legal.

Get our toolbar!