Your One-Stop Source For
Music Lyrics
Bass and Guitar Tabs
and More...
Music Lyrics Bass and Guitar Tabs

 

The Tabs Are Below

Learn To Read Tab
Chords Handbook
Corrections & Additions
Get Official Tab
Everclear tabs @ 911Tabs

The Twistinside by Everclear

off of Sparkle And Fade

Tabbed by TNitz303@aol.com

 

I didn't tab out rythym to well(obviously).I also didn't put down how many times

to play the chord in some parts.In the solo I didn't put in the hammer-ons and pull-offs

in some parts, I'll just let you figure out were you want to put them.

 

INTRO

e :--6---6---6---6-|--6---6---6---6-|---10-7-----10---10-|--10-7------|

B :----------------|----------------|---------------8----|------------|

G :0---0---0---0---|0---0---0---0---|*0------------------|0----------*|

D :----------------|----------------|*-------------------|-----------*|

A :----------------|----------------|--------------------|------------|

E :----------------|----------------|--------------------|------------|

 

VERSE(2nd time another guitar plays the chords G-A-B-C) OUTRO

e :-/7-7-7|-7-------------------|-------------|--------|-------------------|

B :-/8-8-8|-8-/8-8-8-8-/10-10-10|-10-10-8-8-8-|--------|-------------------|

G :-------|---/9-9-9-9-/11-11-11|-11-11-9-9-9-|--------|---------8-8-8-8---|

D :-------|---------------------|-------------|--------|5---5--5-8-8-8-8-0-|

A :-------|---------------------|-------------|--------|5---5--5-6-6-6-6-0-|

E :-------|---------------------|-------------|--------|3---3--3-----------|

SOLO

e :-------------------|-----------------|----------------|

B :-------------------|-----------------|----------------|

G :---------5-5-5-5---|-----------------|----------------|

D :8---8--8-5-5-5-5-0-|5---7-8-10-8-7-8-|5---7-8-5---7-8-|

A :8---8--8-3-3-3-3-0-|-----------------|----------------|

E :6---6--6-----------|-----------------|----------------|

 

e :------------------|--------------------------------|---------------|

B :------------------|/6-6-6-6-6-6-6-6-6-6-6-6-6-6-6-6|6-6-6-6-6-/8-8-|

G :------------------|/7-7-7-7-7-7-7-7-7-7-7-7-7-7-7-7|7-7-7-7-7-/9-9-|

D :-5---7-8-10-8-7-8-|--------------------------------|---------------|

A :------------------|--------------------------------|---------------|

E :------------------|--------------------------------|---------------|

In between

e :----------|---------------------|here-I----|------------------|

B :-6-6-6---6|6-6---6-6-6-6-/8-8-8-|can't-----|0-8-0-8-0-10-0-10-|

G :-7-7-7---7|7-7---7-7-7-7-/9-9-9-|figure-out|*-----------------|

D :----------|---------------------|what-the--|*-----------------|

A :----------|---------------------|hell-he's-|------------------|

E :----------|---------------------|doing-----|------------------|

It's all to distorted.

 

e :--------------------|

B :-0-11-0-11-0-10-0-10|

G :-------------------*|

D :-------------------*|

A :--------------------|

E :--------------------|

 

Right at the end of the second time on the above riff, another guitar comes in

doing this.

e :------------------|---------------|

B :------------------|---------------|

G :------------------|---------------|

D :--------0-8-8-8---|------0-5-5-5--|

A :--5-5-5-0-6-6-6-0-|8-8-8-0-3-3-3-0|

E :\-3-3-3---------0-|6-6-6---------0|

PM..............................}

 

After that he just does some of the riffs he already did, and are tabbed above.

 

Finally he ends on this riff

 

slow bend

e :-15-14-12----------------|

B :----------15p14-14^------|

G :*-----------------------*|

D :*-----------------------*|

A :-------------------------|

E :-------------------------|

feedback

e :15-14-12------------------------|

B :---------15p14-14^r------^------|

G :--------------------------------|

D :--------------------------------|

A :--------------------------------|

E :--------------------------------|

 

That's all I know. If anyone knows the chorus, or the missing part in the solo, please

E-mail me at TNitz303@aol.com

 

^=bend

r=release

you know the rest

 

Return to my to my Everclear tabs page

The Tablature is Copyright its respective owners.

Sign Up For My Newsletter
Subscribe | Unsubscribe

Site Map | Disclaimer | Privacy Policy | Media Kit | Submissions/Corrections

Website © 2000-2014 mattsmusicpage.com. All rights reserved.

Legal & DMCA: Matt's Music Page has been providing lyrics and tabs in a legal way, paying royalties each year to a few organizations. Then, all lyrics and tabs were removed from the site. Now, there's a new owner to the site, which purchased it August 26, 2014, and he is in negotiation to obtain licensing from BMI at the moment. If you have a specific DMCA request -- please do not hesitate to contact me via the contact button on top. I will do my very best to keep this site fully legal.

Get our toolbar!

 

Starbucks You Are Here Coffee Mug/Cup KENTUCKY - Horses, Banjo, Blue, White
$19.99
Starbucks You Are Here Coffee Mug/Cup KENTUCKY - Horses, Banjo, Blue, White picture


KNOWLES ROCKWELL HERITAGE "THE BANJO PLAYER" FIRST EDITION 1989 PLATE COA
$5.99
KNOWLES ROCKWELL HERITAGE


Vintage Postcard 1981 Disney World Banjo Kings Main Street USA 1981 Postmark
$4.99
 Vintage Postcard 1981 Disney World Banjo Kings Main Street USA 1981 Postmark picture


Banjo Barometer With Thermometer Hygrometer 490mm
$84.76
Banjo Barometer With Thermometer Hygrometer 490mm picture


ANTIQUE JAPANESE NIPPON FIGURINE SET OF 3 WOMEN GEISHA PLAYING DRUM BANJO FAN
$24.0
ANTIQUE JAPANESE NIPPON FIGURINE SET OF 3 WOMEN GEISHA PLAYING DRUM BANJO FAN picture