Your One-Stop Source For
Music Lyrics
Bass and Guitar Tabs
and More...
Music Lyrics Bass and Guitar Tabs

 

The Tabs Are Below

Learn To Read Tab
Chords Handbook
Corrections & Additions
Get Official Tab
Everclear tabs @ 911Tabs

Thrift Store Chair

As recorded by Everclear on "SFAAM #1: Learning How to Smile"

Tabbed by Jason Pan (balaka@alphalink.com.au)

 

G

e|------3---------------------------3---------------------| x4

B|------3---------------------------3------------1b-0-----|

G|------0--------0h2-2b-0-----------0--------0h2-2b-0-----|

D|----0------0h2------------------0-------0h2-------------|

A|--------------------------------------------------------|

E|-3---------------------------3--------------------------|

Baby go to bed put out the light

We both know if we talk anymore

We're gonna end up in a great big fight

You can have your way again

Yeah you believe what you want to believe

You can walk all over me tomorrow

But tonight can we both pretend to sleep

 

Am C

e|------------------------------------------|

B|------------1--------------------1--------|

G|------2-------2----------------0---0------|

D|----2---2-------2----------0h2--------2---|

A|--0------------------3------------------3-|

E|------------------------------------------|

I think we are headed for a big fall

I think we are headed for a bad time

 

G

e|------3---------------------------3---------------------|

B|------3---------------------------3------------1b-0-----|

G|------0--------0h2-2b-0-----------0--------0h2-2b-0-----|

D|----0------0h2------------------0-------0h2-------------|

A|--------------------------------------------------------|

E|-3---------------------------3--------------------------|

Gonna go downstairs and sit in that chair you like

 

Am C

e|------------------------------------------|

B|------------1--------------------1--------|

G|------2-------2----------------0---0------|

D|----2---2-------2----------0h2--------2---|

A|--0------------------3------------------3-|

E|------------------------------------------|

Gonna put a John Prine record on

I think we need to slow it down for awhile

 

G

e|------3---------------------------3---------------------|x4

B|------3---------------------------3------------1b-0-----|

G|------0--------0h2-2b-0-----------0--------0h2-2b-0-----|

D|----0------0h2------------------0-------0h2-------------|

A|--------------------------------------------------------|

E|-3---------------------------3--------------------------|

Yeah I wish we never bought a king size bed

Yeah the only damn thing that it's ever been good for

Plenty room for the real good sex

Lay in the bed in the dark and all I can see

Yeah is the distance that grows between us

You seem so far from me

 

Am C

e|------------------------------------------|

B|------------1--------------------1--------|

G|------2-------2----------------0---0------|

D|----2---2-------2----------0h2--------2---|

A|--0------------------3------------------3-|

E|------------------------------------------|

I think we're headed for a real big fall

Yes we're headed for a bad time

 

G

e|------3---------------------------3---------------------|

B|------3---------------------------3------------1b-0-----|

G|------0--------0h2-2b-0-----------0--------0h2-2b-0-----|

D|----0------0h2------------------0-------0h2-------------|

A|--------------------------------------------------------|

E|-3---------------------------3--------------------------|

Yeah gonna go downstairs

Sit by myself all alone in the middle of the night

 

Am C

e|------------------------------------------|

B|------------1--------------------1--------|

G|------2-------2----------------0----------|

D|----2---2-------2----------0h2------------|

A|--0------------------3--------------------|

E|------------------------------------------|

Gonna put a John Prine record on

Guess we need to slow it down for awhile

 

G

e|------3---------------------------3---------------------|

B|------3---------------------------3------------1b-0-----|

G|------0--------0h2-2b-0-----------0--------0h2-2b-0-----|

D|----0------0h2------------------0-------0h2-------------|

A|--------------------------------------------------------|

E|-3---------------------------3--------------------------|

I'm going to go downstairs, smoke cigarettes in a thrift store chair you like

 

Am C

e|------------------------------------------|

B|------------1--------------------1--------|

G|------2-------2----------------0----------|

D|----2---2-------2----------0h2------------|

A|--0------------------3--------------------|

E|------------------------------------------|

Gonna put a John Prine record on, Yeah we need to slow it down for awhile

 

G

e|------3---------------------------3---------------------| x4

B|------3---------------------------3------------1b-0-----|

G|------0--------0h2-2b-0-----------0--------0h2-2b-0-----|

D|----0------0h2------------------0-------0h2-------------|

A|--------------------------------------------------------|

E|-3---------------------------3--------------------------|

We need to slow it down for awhile

We need to slow it down for awhile

We need to slow it down for awhile

 

End on a G

 

 

Return to my to my Everclear tabs page

The Tablature is Copyright its respective owners.

Sign Up For My Newsletter
Subscribe | Unsubscribe

Site Map | Disclaimer | Privacy Policy | Media Kit | Submissions/Corrections

Website © 2000-2014 mattsmusicpage.com. All rights reserved.

Legal & DMCA: Matt's Music Page has been providing lyrics and tabs in a legal way, paying royalties each year to a few organizations. Then, all lyrics and tabs were removed from the site. Now, there's a new owner to the site, which purchased it August 26, 2014, and he is in negotiation to obtain licensing from BMI at the moment. If you have a specific DMCA request -- please do not hesitate to contact me via the contact button on top. I will do my very best to keep this site fully legal.

Get our toolbar!