Your One-Stop Source For
Music Lyrics
Bass and Guitar Tabs
and More...
Music Lyrics Bass and Guitar Tabs

 

The Tabs Are Below

Learn To Read Tab
Chords Handbook
Corrections & Additions
Get Official Tab
Everclear tabs @ 911Tabs

Summerland

 

E :----------------|----------------|-------------------|

B :1---------------|4---------------|-8----------8--8-6-|

G :0---------------|0---------------|-0----------0--0-0-|

D :3---------------|6---------------|10---------10-10-8-|

A :3---------------|6---------------|-x----------x--x-x-|

E :----------------|----------------|-8----------8--8-6-|

 

E :---------------- 1|----------------|----------------|

B :6-4-4----------- ||1-----------1---|4-----------4---|

G :0-0-0-----------*||0-----------0---|0-----------0---|

D :8-6-6-----------*||3-----------3---|6-----------6---|

A :x-x-x----------- ||3-----------3---|6-----------6---|

E :6-4-4----------- ||----------------|----------------|

 

E :-------------------|----------------|| ----------------|

B :-8----------8--8-6-|6-4-4-----8-8-8-|| 8-6-6---------6-|

G :-0----------0--0-0-|0-0-0-----0-0-0-||*0-0-0---------0-|

D :10---------10-10-8-|8-6-6-----7-7-7-||*7-5-5---------8-|

A :-x----------x--x-x-|x-x-x-----8-8-8-|| 8-6-6---------8-|

E :-8----------8--8-6-|6-4-4-----------|| ----------------|

 

E :----------------|----------------|---------------- 1|

B :6-4-4---------3-|3-1-1---------1-|1-4-4---------8- ||

G :0-0-0---------0-|0-0-0---------0-|0-0-0---------0-*||

D :8-6-6---------5-|5-3-3---------3-|3-6-6---------7-*||

A :8-6-6---------5-|5-3-3---------3-|3-6-6---------8- ||

E :----------------|----------------|---------------- ||

 

 

Return to my to my Everclear tabs page

The Tablature is Copyright its respective owners.

Sign Up For My Newsletter
Subscribe | Unsubscribe

Site Map | Disclaimer | Privacy Policy | Media Kit | Submissions/Corrections

Website © 2000-2014 mattsmusicpage.com. All rights reserved.

Legal & DMCA: Matt's Music Page has been providing lyrics and tabs in a legal way, paying royalties each year to a few organizations. Then, all lyrics and tabs were removed from the site. Now, there's a new owner to the site, which purchased it August 26, 2014, and he is in negotiation to obtain licensing from BMI at the moment. If you have a specific DMCA request -- please do not hesitate to contact me via the contact button on top. I will do my very best to keep this site fully legal.

Get our toolbar!