Your One-Stop Source For
Music Lyrics
Bass and Guitar Tabs
and More...
Music Lyrics Bass and Guitar Tabs

 

The Tabs Are Below

Learn To Read Tab
Chords Handbook
Corrections & Additions
Get Official Tab
Everclear tabs @ 911Tabs

My Sexual Life

 

E :7-7-7-7-7-7-7-7- 1|----9-9-9-9-9-9-9-|9-10-10-10-10-9-7---|

B :7-7-7-7-7-7-7-7- ||----7-7-7-7-7-7-7-|7--7--7--7--7-7-7-0-|

G :7-7-7-7-7-7-7-7-*||----7-7-7-7-7-7-7-|7--7--7--7--7-7-7-0-|

D :----------------*||0---0-0-0-0-0-0-0-|0--0--0--0--0-0-0---|

A :---------------- ||------------------|--------------------|

E :---------------- ||------------------|--------------------|

 

E :----7-7-7-7-7-7-7-|7-9-9-7-7-5-5--- 4|3-3-3-3-3-3-3-3-3|

B :5-5-5-5-5-5-5-5-5-|5-----5-5-5-5-0- ||3-3-3-3-3-3-3-3-3|

G :6-6-6-6-6-6-6-6-6-|6-9-9-6-6-6-6-0-*||0-0-0-0-0-0-0-0-0|

D :------------------|----------------*||0-0-0-0-0-0-0-0-0|

A :0-0-0-0-0-0-0-0-0-|0-0-0-0-0-0-0--- ||2-2-2-2-2-2-2-2-2|

E :------------------|---------------- ||3-3-3-3-3-3-3-3-3|

 

E :0-0-0-0-0-0-0-0-|

B :2-2-2-2-2-2-2-2-|

G :0-0-0-0-0-0-0-0-|

D :2-2-2-2-2-2-2-2-|

A :0-0-0-0-0-0-0-0-|

E :*---------------|

 

 

Return to my to my Everclear tabs page

The Tablature is Copyright its respective owners.

Sign Up For My Newsletter
Subscribe | Unsubscribe

Site Map | Disclaimer | Privacy Policy | Media Kit | Submissions/Corrections

Website © 2000-2014 mattsmusicpage.com. All rights reserved.

Legal & DMCA: Matt's Music Page has been providing lyrics and tabs in a legal way, paying royalties each year to a few organizations. Then, all lyrics and tabs were removed from the site. Now, there's a new owner to the site, which purchased it August 26, 2014, and he is in negotiation to obtain licensing from BMI at the moment. If you have a specific DMCA request -- please do not hesitate to contact me via the contact button on top. I will do my very best to keep this site fully legal.

Get our toolbar!

 

1939 LYRIC THEATRE New York PHOTO
$5.83
1939 LYRIC THEATRE New York PHOTO picture


Star Spangled Banner or Marines Hymn lyrics signed by WWII Charles W. Lindberg
$10.0
Star Spangled Banner or Marines Hymn lyrics signed by WWII Charles W. Lindberg picture


OLD LARGE HISTORIC PHOTO OF THE LYRIC THEATRE, SYDNEY c1930s, WAR BONDS BOOTH
$7.42
OLD LARGE HISTORIC PHOTO OF THE LYRIC THEATRE, SYDNEY c1930s, WAR BONDS BOOTH picture


SONG OF REVOLUTION CARD SET WITH 13 MOST FAVORED COMMUNIST SONGS LYRICS + NOTES
$24.99
SONG OF REVOLUTION CARD SET WITH 13 MOST FAVORED COMMUNIST SONGS LYRICS + NOTES picture


OLD LARGE HISTORIC PHOTO OF THE LYRIC THEATRE, SYDNEY c1930s, WAR LOANS BOOTH
$7.42
OLD LARGE HISTORIC PHOTO OF THE LYRIC THEATRE, SYDNEY c1930s, WAR LOANS BOOTH picture