Your One-Stop Source For
Music Lyrics
Bass and Guitar Tabs
and More...
Music Lyrics Bass and Guitar Tabs

 

The Tabs Are Below

Learn To Read Tab
Chords Handbook
Corrections & Additions
Get Official Tab
Everclear tabs @ 911Tabs

Santa Monica

by Everclear

tabbed by ikswejahan@aol.com

 

Not much to say 'bout this one except that it is in standard

tuning.

 

Intro

e--------------------------------------------------

b--------------------------------------------------

g--------------------------------------------------

d-5--5------5--5--5--5--5--5--x-x-x-x-5--5--5--5---

a-5--5------5--5--5--5--5--5--x-x-x-x-5--5--5--5---

E-3--3------3--3--0--0--3--3--x-x-x-x-3--3--0--0---

 

Intro (continued)

e--------------------------------3------

b--------------------------------3------

g--------------------------------4------

d-5--5--x-x-x-x--5--5--5--5------5------

a-5--5--x-x-x-x--5--5--5--5------5------

E-3--3--x-x-x-x--3--3--0--0------3------

 

Verse Part 1

e-------------------------------------------

b-------------------------------------------

g-------------------------------------------

d-5-5----5-5-5-5-5-5--x-x-x-x--5-5-5-5-5-5--

a-5-5----5-5-5-5-5-5--x-x-x-x--5-5-5-5-5-5--

E-3-3----3-3-0-0-3-3--x-x-x-x--3-3-0-0-3-3--

 

Verse Part 2

e-----------------------------------------------

b--------------------------------7--7---7/9--9-0

g--------------------------------7--7-x-7/9--9-0

d-5-5-5-5-5-5--x-x-x-x--5-5-5-0--7--7-x-7/9--9--

a-5-5-5-5-5-5--x-x-x-x--5-5-5-0--5--5-x-5/7--7--

E-3-3-0-0-3-3--x-x-x-x--3-3-0-0--5--5---5/7--7--

 

Verse Part 2 (continued)

e---------------------------------------------3--

b-5--5--------5--5----------------------------3--

g-5--5-x-x-x--5--5--------0-------------------4--

d-5--5-x-x-x--5--5---7--7----5--5---5-5-5-5---5--

a-3--3-x-x-x--3--3---7--7----5--5---5-5-5-5---5--

E-3--3--------3--3/5-5-------3--3---3-3-0-0---3--

 

Chorus

e-------------------------------------------------

b-5--5----------5--5/7-7-------------9-7---7---5--

g-5--5--x-x-x-x-5--5/7-7--x-0--4--4--9-7---7---5--

d-5--5--x-x-x-x-5--5/7-7--x-0--5--5--9-7---7---5--

a-3--3--x-x-x-x-3--3/5-5--x----5--5--7-5---5---3--

E-3--3----------3--3/5-5-------3--3--7-5---5---3--

 

Chorus Part 2

e----------------------

b-----------7--7\5-----

g-----------7--7\5-----

d--5--5-----7--7\5-----

a--5--5-----5--5\3-----

E--3--3/6---5--5\3-----

 

ORDER OF PLAY

Intro

Verse Part 1

Verse Part 2

Verse Part 1

Verse Part 2 (twice)

Chorus

Chorus Part 2

Chorus

Verse Part 1 (twice)

Verse Part 2

Verse Part 1

Verse Part 1

Verse Part 2

Verse Part 1

Chorus

JUST PLAY THE CHORUS UNTIL THE END AND END ON A G5 CHORD

 

well thats all. questions comments, requests? send 'em to me.

Sorry if this a little confusing.

 

 

Return to my to my Everclear tabs page

The Tablature is Copyright its respective owners.

Sign Up For My Newsletter
Subscribe | Unsubscribe

Site Map | Disclaimer | Privacy Policy | Media Kit | Submissions/Corrections

Website © 2000-2014 mattsmusicpage.com. All rights reserved.

Legal & DMCA: Matt's Music Page has been providing lyrics and tabs in a legal way, paying royalties each year to a few organizations. Then, all lyrics and tabs were removed from the site. Now, there's a new owner to the site, which purchased it August 26, 2014, and he is in negotiation to obtain licensing from BMI at the moment. If you have a specific DMCA request -- please do not hesitate to contact me via the contact button on top. I will do my very best to keep this site fully legal.

Get our toolbar!