Your One-Stop Source For
Music Lyrics
Bass and Guitar Tabs
and More...
Music Lyrics Bass and Guitar Tabs

 

The Tabs Are Below

Learn To Read Tab
Chords Handbook
Corrections & Additions
Get Official Tab
Everclear tabs @ 911Tabs

Queen Of The Air

Everclear

 

 

Verse

e|------------------------------------------------------|

B|------------------------------------------------------|

G|-9---9--11-9--8---8--9--11-9---9--1111-6--8-8--4--6-6-|

D|-x---x--x--x--x---x--x--x--x---x--x-x--x--x-x--x--x-x-|

A|-7---7--9--7--6---6--7--9--7---7--9-9--4--6-6--2--4-4-|

E|------------------------------------------------------|

The verse is using the octaves, a powercord with the

fifth muted.

 

Riff

e|--4-------5--------------------------0----------------|

B|----4-------5------0-------2---------0----------------|

G|5-----5-6-----6------1-------3-------1----------------|

D|-----------------2-----2-4-----4-----2----------------|

A|------------------------------------------------------|

E|------------------------------------------------------|

The riff is hitting notes in the major cords in the

chorus.

 

Chorus G#5 A5 E5 F#5

e|------------------------------------------------------|

B|------------------------------------------------------|

G|------------------------------------------------------|

D|--6-6-6-6--7-7-7-7--2-2-2-2--4-4-4-4------------------|

A|--6-6-6-6--7-7-7-7--2-2-2-2--4-4-4-4------------------|

E|--4-4-4-4--5-5-5-5--0-0-0-0--2-2-2-2------------------|

It's all powerchords.

 

Bridge

e|------------------------------------------------------|

B|------------------------------------------------------|

G|--13-13-13-13--14-14-14-14--9-9-9-9-11-11-11-11-------|

D|--13-13-13-13--14-14-14-14--9-9-9-9-11-11-11-11-------|

A|--11-11-11-11--12-12-12-12--7-7-7-7-9--9--9--9--------|

E|------------------------------------------------------|

It's the same chords as the chorus, but it's an octave up.

 

Solo:

e|------------------------------------------------------|

B|-12--12----12-12-12----12-12--------------------------|

G|-9---11b13-9--8--11b13-9--11b13-13-11-9-8-99--88-----9|

D|---------------------------------------------9--9-11--|

A|------------------------------------------------------|

E|------------------------------------------------------|

 

[Intro]

[Verse 2x]

There is a dream

I used to have

My dream swallowed me whole

There is a bridge

Where I hate to go

That is where I first saw her

 

[Riff 2x]

High on the bridge

I've seen her

Red hair shining

 

[Verse 2x]

There is a girl

I never knew

She was my aunt Viginia

They said that she

she just disappeared

They said I looked just like her

 

[Chorus 4x muted]

High on the bridge

I've seen her

Dancing and waving to me there

She smiled and raised her head

and she took to the air

 

[Verse 2x with distortion]

The is a dream

I can't escape

My memories come back to me

There is a hell

I can't escape

My memories come back to me

 

[Chorus 4x with distortion]

I hear the truth about it

pictures and headlines

Hidden away

I heard the truth about my real mom

Jumping from the bridge that day

 

[Bridge 4x with distorton]

Now I know why ever since I was three years old

been having the same nightmare

Now I know the truth about Virginia

and why she took to the air

[Verse clean]

[Play solo over verse clean]

 

Well that's about all of it.

 

 

Return to my to my Everclear tabs page

The Tablature is Copyright its respective owners.

Sign Up For My Newsletter
Subscribe | Unsubscribe

Site Map | Disclaimer | Privacy Policy | Media Kit | Submissions/Corrections

Website © 2000-2014 mattsmusicpage.com. All rights reserved.

Legal & DMCA: Matt's Music Page has been providing lyrics and tabs in a legal way, paying royalties each year to a few organizations. Then, all lyrics and tabs were removed from the site. Now, there's a new owner to the site, which purchased it August 26, 2014, and he is in negotiation to obtain licensing from BMI at the moment. If you have a specific DMCA request -- please do not hesitate to contact me via the contact button on top. I will do my very best to keep this site fully legal.

Get our toolbar!