Your One-Stop Source For
Music Lyrics
Bass and Guitar Tabs
and More...
Music Lyrics Bass and Guitar Tabs

 

The Tabs Are Below

Learn To Read Tab
Chords Handbook
Corrections & Additions
Get Official Tab
Everclear tabs @ 911Tabs

Pale Green Stars

Everclear

 

 

Chord1 Chord2 Chord3

|---------|----------|----------|

|---------|----------|----------|

|-----7---|-----6----|------5---|

|-----5---|-----5----|------5---|

|---------|----------|----------|

|---------|----------|----------|

 

Chord4 G C

----------|-----3----|-----3----|

----------|-----3----|-----5----|

----4-----|-----4----|-----5----|

----5-----|-----5----|-----5----|

----------|-----5----|-----3----|

----------|-----3----|-----3----|

 

 

Riff #1

---------------------------------------------|

---------------------------------------------|

---------------------------------5----5----5-|

5----5----5--------------0----5----5----5----|

5----5----5---------2---------3----3----3----|

3----3----3----3--------------3----3----3----|

 

|---------------------------------------|

|---------------------------------------|

|---------------------------------------|

|----2p0---------0----5----5----5-------|

|-----------3-----------5----5----5-----|

|------------------------3----3----3----|

 

|----------------------------------|--------|

|----------------------------------|--------|

|--------------------5----5----5---|----5/--|

|--------------0----5----5----5----|----5---|

|---------2---------3----3----3----|----3---|

|----3--------------3----3----3----|----3/--|

 

 

Riff #2 (watch the rythym)

|--------------0-------------------------|

|----------------------------------4-----|

|------------------0---------0-----------|

|------------------------1---------------|

|---0----4-------------------------------|

|----------------------------------------|

 

|----------------------------------------|

|-----3----0-----------------------------|

|---------------0---------0---------0----|

|0-------------------1---------0---------|

|----------------------------------------|

|----------------------------------------|

It starts out

 

Chord 1

 

 

1 2

Amanda is in love with the

 

1

site of the moon

 

1 2

Shes got pale green

 

3 4

stars in her room

 

Right above her bed

 

Put them on the ceiling

Leave on the light

When the sun goes down

Then the stars might shine

Shining in the dark

Riff #1

 

 

Skinny little girl in her room alone

Shes got hell to spare in her home

If you can call it a home

 

Doesn't want to be like anybody else

When no one os around

She talks to herself

I can here her in the night

 

 

G G G GG C C C

Hey --- hey yeah

Its hard on a girl

When the blood won't come

When it ought to come

It's hard on a girl

When you try to walk around

On the shaking ground

 

play riff 2 over this part

 

Hey Hey daddy's going away

 

Scared little girl

Watchin' Alladdin on TV

Amanda always cries

When you yell at me

 

Yeah----Please don't yell at me

 

Climb up all the stairs

Close the door

Doesn't want to hear

Us fightin' any more

 

Yeah I'd better call it a day

 

Hey---hey yeah

 

Solo:

x5

|--3--3--3----|-/5--5/7--8--7--8--7--|

|-------------|----------------------|

|-------------|----------------------|

|-------------|----------------------|

|-------------|----------------------|

|-------------|----------------------|

 

2x

|-----------------------------|

|-----------------------------|

|-/4--4--4--4--6--7---9-------|

|-----------------------------|

|-----------------------------|

|-----------------------------|

 

full

 

-------------------------------------|

-------------------------------------|

4-----4--4--5--4--2--2-~~~-----------|

-------------------------------------|

-------------------------------------|

-------------------------------------|

 

--------------------------------------------------------------------------------

Pale Green Stars

Everclear

 

e ---------------------------------------------------------

b ---3--3--3--3--3--3--3--3--3--3--2--2--2--2--2--2--2-----

g ---0--0--0--0--0--0--0--0--0--0--0--0--0--0--0--0--0----- repeat 2x

d ---------------------------------------------------------

a ---------------------------------------------------------

E----------------------------------------------------------

"Amanda is in love with the sight..."

"She's got pale green stars in her room.."

 

e ---------------------------------------------------------

b ---1--1--1--1--0--0--0--0--1--1--1--1--0--0--0--0--------

g ---0--0--0--0--0--0--0--0--0--0--0--0--0--0--0--0--------

d ---2--2--2--2--2--2--2--2--2--2--2--2--2--2--2--2--------

a ---3--3--3--3--3--3--3--3--3--3--3--3--3--3--3--3--------

E----3--3--3--3--3--3--3--3--3--3--3--3--3--3--3--3--------

"Right above her bed.."

 

Chorus:

Cadd9 G

e ---------------------------------------------------------

b ---------------------------------------------------------

g --------------------------------------------------------- repeat again 2x

d ------------------------0-----------2p0------------------

a ------------2--0-----2-----3--3--3-------3--2--0--2------

E----3--3--3--------3--------------------------------------

(This parts sounds ok if you just play chords while playing

emphasizing the pickoffs)

 

e ---------------------------------------------------------

b ----------------------0----------------------------------

g ---------0------------------------0--------0------------- repeat 2x

d -------------------2-------------------------------------

a ------4------0--3--------0-----2--------2----------------

E ---5------------------------3--------3-------------------

"Hey, Hey (Hey), Daddy's going away"

 

>end of chorus<

 

* : Mute

 

e ---------------------------------------------------------

b ---3--3--3--3--3--3--3--3--3--3--2--2--2--2--2--2--2-----

g ---0--0--0--0--0--0--0--0--0--0--0--0--0--0--0--0--0-----

d ---0--0--0--0--0--0--0--0--0--0--0--0--0--0--0--0--0-----

a ---*--*--*--*--*--*--*--*--*--*--*--*--*--*--*--*--*-----

E----3--3--3--3--3--3--3--3--3--3--3--3--3--3--3--3--3-----

"Scared little girl watching alladin on..."

"Amanda always cries when you yell at me..."

 

e ---------------------------------------------------------

b ---1--1--1--1--0--0--0--0--1--1--1--1--0--0--0--0--------

g ---0--0--0--0--0--0--0--0--0--0--0--0--0--0--0--0--------

d ---2--2--2--2--2--2--2--2--2--2--2--2--2--2--2--2--------

a ---3--3--3--3--3--3--3--3--3--3--3--3--3--3--3--3--------

E----3--3--3--3--3--3--3--3--3--3--3--3--3--3--3--3--------

"Yeah - Please don't yell at me.."

 

repeat chorus

 

 

Return to my to my Everclear tabs page

The Tablature is Copyright its respective owners.

Sign Up For My Newsletter
Subscribe | Unsubscribe

Site Map | Disclaimer | Privacy Policy | Media Kit | Submissions/Corrections

Website © 2000-2014 mattsmusicpage.com. All rights reserved.

Legal & DMCA: Matt's Music Page has been providing lyrics and tabs in a legal way, paying royalties each year to a few organizations. Then, all lyrics and tabs were removed from the site. Now, there's a new owner to the site, which purchased it August 26, 2014, and he is in negotiation to obtain licensing from BMI at the moment. If you have a specific DMCA request -- please do not hesitate to contact me via the contact button on top. I will do my very best to keep this site fully legal.

Get our toolbar!