Your One-Stop Source For
Music Lyrics
Bass and Guitar Tabs
and More...
Music Lyrics Bass and Guitar Tabs

 

The Tabs Are Below

Learn To Read Tab
Chords Handbook
Corrections & Additions
Get Official Tab
Everclear tabs @ 911Tabs

How To Win Friends And Influence People

Slow Motion Daydream

Lyrc By Art Alexakis

Music By Everclear

Tabbed by JR (soggypeaches@yahoo.com)

 

 

e----------------------

b----------------------

g---------------------- Play This 4 Times

d-11-11-11--11-11-11-11

a----------------------

e-9--9--9---9--9--9--9-

 

 

 

e-------------------------7--9

b-----------------------------

g-10-10-10--10-10-10-10-------

d-11-11-11--11-11-11-11------- Play This 7 Times

a-11-11-11--11-11-11-11-------

e-9--9--9---9--9--9--9--------

 

 

 

e----------------------------------7--9-------------------------7--9

b-------------------------------------------------------------------

g-7~----8~----------------------------------------------------------

d-8~----9~--11-11-11--11-11-11-11--------11-11-11--11-11-11-11------ Play This

a-8~----9~---------------------------------------------------------- 4 Times

e-6~----7~--9--9--9---9--9--9--9---------9--9--9---9--9--9--9-------

 

 

 

e-------------------------7--9

b-----------------------------

g-10-10-10--10-10-10-10-------

d-11-11-11--11-11-11-11------- Play This 4 Times

a-----------------------------

e-9--9--9---9--9--9--9--------

 

 

 

 

e-------------------------7--9

b-----------------------------

g-10-10-10--10-10-10-10------- Play This 4 Times

d-11-11-11--11-11-11-11-------

a-11-11-11--11-11-11-11-------

e-9--9--9---9--9--9--9--------

 

 

e----------------------------------7--9-------------------------7--9

b-------------------------------------------------------------------

g-7~----8~----------------------------------------------------------

d-8~----9~--11-11-11--11-11-11-11--------11-11-11--11-11-11-11------ Play This

a-8~----9~---------------------------------------------------------- 4 Times

e-6~----7~--9--9--9---9--9--9--9---------9--9--9---9--9--9--9-------

 

e-------------------------7--9

b-----------------------------

g-10-10-10--10-10-10-10-------

d-11-11-11--11-11-11-11------- Play This 4 Times

a-----------------------------

e-9--9--9---9--9--9--9--------

 

e-------------------------7--9

b-----------------------------

g-10-10-10--10-10-10-10------- Play This 4 Times

d-11-11-11--11-11-11-11-------

a-11-11-11--11-11-11-11-------

e-9--9--9---9--9--9--9--------

 

 

e--------------------------------------

b--------------------------------------

g-10-10-10-10-10-8-8-8-8-8-8-7-7-7-6-6- Play This 4 Times

d-11-11-11-11-11-9-9-9-9-9-9-8-8-8-7-7-

a-11-11-11-11-11-9-9-9-9-9-9-8-8-8-7-7-

e-9--9--9--9--9--7-7-7-7-7-7-6-6-6-5-5-

 

e--------------------------------------

b--------------------------------------

g-10-10-10-10-10-8-8-8-8-8-8-7-7-7-6-6- Play This 4 Times

d-11-11-11-11-11-9-9-9-9-9-9-8-8-8-7-7-

a--------------------------------------

e-9--9--9--9--9--7-7-7-7-7-7-6-6-6-5-5-

 

e--------------------------------------

b--------------------------------------

g-10-10-10-10-10-8-8-8-8-8-8-7-7-7-6-6- Play This 4 Times

d-11-11-11-11-11-9-9-9-9-9-9-8-8-8-7-7-

a-11-11-11-11-11-9-9-9-9-9-9-8-8-8-7-7-

e-9--9--9--9--9--7-7-7-7-7-7-6-6-6-5-5-

 

e-------------------------7--9

b-----------------------------

g-10-10-10--10-10-10-10------- Play This 4 Times

d-11-11-11--11-11-11-11-------

a-11-11-11--11-11-11-11-------

e-9--9--9---9--9--9--9--------

 

Thats About All It Does

 

Return to my to my Everclear tabs page

The Tablature is Copyright its respective owners.

Sign Up For My Newsletter
Subscribe | Unsubscribe

Site Map | Disclaimer | Privacy Policy | Media Kit | Submissions/Corrections

Website © 2000-2014 mattsmusicpage.com. All rights reserved.

Legal & DMCA: Matt's Music Page has been providing lyrics and tabs in a legal way, paying royalties each year to a few organizations. Then, all lyrics and tabs were removed from the site. Now, there's a new owner to the site, which purchased it August 26, 2014, and he is in negotiation to obtain licensing from BMI at the moment. If you have a specific DMCA request -- please do not hesitate to contact me via the contact button on top. I will do my very best to keep this site fully legal.

Get our toolbar!