Your One-Stop Source For
Music Lyrics
Bass and Guitar Tabs
and More...
Music Lyrics Bass and Guitar Tabs

 

The Tabs Are Below

Learn To Read Tab
Chords Handbook
Corrections & Additions
Get Official Tab
Everclear tabs @ 911Tabs

Heroin Girl by Everclear

Tabbed by TNitz303@aol.com

 

Here's the intro, it's played clean

 

e :------------------|----------2-----|0---------2-----|0---------2-----|

B :------------------|------------2---|--0---------2---|--0---------2---|

G :------------11\---|--------------3-|----3---------3-|--------------3-|

D :------------12\---|----------------|------4---------|----------------|

A :5-5-5-5-5-5-12\---|5-5-5-5-5-------|----------------|----5-5-4-------|

E :3-3-3-3-3-3-------|3-3-3-3-3-------|--------2-------|----3-3-2-------|

PM--------| PM-------|

 

these are the chords

for the verse, the

strumming pattern

he uses is hard to

tab out. Chorus chords

F# D A B F# D E

e :0---------2-----|0---------------|----------------|-----------------|

B :--0---------2---|--0-------------|----------------|-----------------|

G :----3---------3-|----------------|--2-------------|-7--9------------|

D :------4---------|----------------|--0-2-4---------|-7--9------------|

A :----------------|----5-5-4-------|4---0-2-4-------|-5--7------------|

E :--------2-------|----3-3-2-------|2-------2-------|-----------------|

^

kick in the distortion

 

 

I couldn't get the cool chord progression before the solo or the solo it's self.

The first little solo, or more like an interlude, he plays the little appregio

riff he uses in the beginning with some variation. Sorry this is tabbed out so sloppy.

Any requests or questions please Email me at TNitz303@aol.com

 

Return to my to my Everclear tabs page

The Tablature is Copyright its respective owners.

Sign Up For My Newsletter
Subscribe | Unsubscribe

Site Map | Disclaimer | Privacy Policy | Media Kit | Submissions/Corrections

Website © 2000-2014 mattsmusicpage.com. All rights reserved.

Legal & DMCA: Matt's Music Page has been providing lyrics and tabs in a legal way, paying royalties each year to a few organizations. Then, all lyrics and tabs were removed from the site. Now, there's a new owner to the site, which purchased it August 26, 2014, and he is in negotiation to obtain licensing from BMI at the moment. If you have a specific DMCA request -- please do not hesitate to contact me via the contact button on top. I will do my very best to keep this site fully legal.

Get our toolbar!