Your One-Stop Source For
Music Lyrics
Bass and Guitar Tabs
and More...
Music Lyrics Bass and Guitar Tabs

 

The Tabs Are Below

Learn To Read Tab
Chords Handbook
Corrections & Additions
Get Official Tab
Everclear tabs @ 911Tabs

Heartspark Dollarsign

Everclear - Sparkle and Fade

 

This version tabbed by Pete Donnell (rockdog@talk21.com)

I put it together from two or three other incomplete tabs and

filled in the gaps. I'm 99% sure it's accurate... Unfortunately,

you'll have to work out the rhythms yourself, it's not hard!

Takes far too long to write out every strum though ;o)

Chords written above the lyrics - chords are also written above

Riff 1, so it's easy to see which words you should be singing to

which bit of the riff. Enjoy!

 

Intro:

 

|-----0-------------2-----------------0-------------2----------|

|-------------3-----3-------------------------3-------3--------|

|-------0-----0-----0-------------------0-----0---------0------|

|---0---------0---------------------0---------0----------------|

|--------------------------------------------------------------|

|-3---------3---------------------3---------3------------------|

 

|-----0-------------2------------------------------------------|

|-------------3-----3------------------------------------------|

|-------0-----0-----0----------------------------------2-4-2-0-|

|---0---------0----------------------------------------0-0-0-0-|

|--------------------------------------------------------------|

|-3---------3------------------(3)-(3)-(3)-(3)-(3)-(3)---------|

 

Notes in brackets played on bass

 

 

Riff 1:

 

G D C D G D C D

 

|-3--------------0--------------3--------------0---------------|

|-3--------------1--------------3--------------1---------------|

|-0------2-4-2-0-0------2-4-2-0-0------2-4-2-0-0------2-4-2-0--|

|-0------0-0-0-0-2------0-0-0-0-0------0-0-0-0-2------0-0-0-0--|

|-2--------------3--------------2--------------3---------------|

|-3-----------------------------3------------------------------|

 

V1 (bass only until chord marked *):

 

G D C D G

Time stops when the whispers blare

 

D C D G

the voices drop hard but the eyes still stare

 

D C D A* <guitar comes in>

the world resolves into a death's head grin

 

C <Riff 1>

because i walk with pride with a black girlfriend

 

 

V2 (Muted guitar plays Riff 1 until chord A):

 

G D C D G

My mom says not to bring her round

 

D C D G

because she's black, my family would put her down

 

D C D A

i'll break the white trash ties that bind

 

C <Riff 1>

trade a love so pure for a hate so blind

 

 

Chorus 1:

 

Am Em Am Em

She said, she said,

 

C G D G

'Forget the fact that i don't look like you.'

 

Am Em Am Em

She said, she said,

 

C D <Riff 1>

'You're possessed with a power bigger than the pain.'

 

 

Solo (Riff 1 as backing):

 

|--------------------------------------------------------------|

|--17-15-----------12-15-12-15-12--------x\--------------------|

|--^-------------------------------------x\--------------------|

|-pre-bend-----------------------------------------------------|

|--------------------------------------------------------------|

|--------------------------------------------------------------|

 

 

|---------12-15------------------------------------------------|

|---12-15-------12--------------15----15-----------------------|

|----------------------------------12----11--------------------|

|--------------------------------------------------------------|

|--------------------------------------------------------------|

|--------------------------------------------------------------|

 

 

|---------12-15------------------------------------------------|

|---12-15-------12--------------15----15-----------------------|

|----------------------------------12----11--------------------|

|--------------------------------------------------------------|

|--------------------------------------------------------------|

|--------------------------------------------------------------|

 

 

|-------------------------------------------------|

|-12-12-12-12-12-12-12-12-11-11-11-11-11-11-11-11-|

|-12-12-12-12-12-12-12-12-12-12-12-12-12-12-12-12-|

|-------------------------------------------------|

|-------------------------------------------------|

|-------------------------------------------------|

 

 

|-------------------------------------------------|

|-12-12-12-12-12-12-12-12-11-11-11-11-11-11-11-11-|

|-12-12-12-12-12-12-12-12-12-12-12-12-12-12-12-12-|

|-------------------------------------------------|

|-------------------------------------------------|

|-------------------------------------------------|

 

 

|---------------------------------------------|

|-12-12-12-12-11-11-11-11-12-12-12-12---------|

|-12-12-12-12-12-12-12-12-12-12-12-12-2-4-2-0-|

|-------------------------------------0-0-0-0-|

|---------------------------------------------|

|---------------------------------------------|

 

 

|--------------------------------------------------------------|

|--------------------------------------------------------------|

|-----4-/-7----2-/-4-----------4-/-7----2-/-4------------------|

|--------------------------------------------------------------|

|--------------------------------------------------------------|

|--------------------------------------------------------------|

 

 

|-----0--------------------------------------------------------|

|-------------3------------------------------------------------|

|-------0-----0----------------------------------------2-4-2-0-|

|---0---------0----------------------------------------0-0-0-0-|

|--------------------------------------------------------------|

|-3---------3---(3)-(3)-(3)-(3)-(3)-(3)-(3)-(3)-(3)-(3)--------|

 

 

V3 (Riff 1, muted guitar again):

 

G D C D G

Time stops when we lie so close

 

D C D G

in my room where we share what no-one knows

 

D C D A

from the day that we start to the day that we end

 

C

i know, i know, i know now

 

A C <Riff 1>

we will never find a place where we could just fit in

 

C D G D

me and my black girlfriend

 

C D

Waaaah!!

 

Chorus 2:

 

Am Em Am Em

She said, she said,

 

C G D G

'Fend for yourself, you're alone.'

 

Am Em Am Em

She said, she said,

 

C D <Riff 1>

'You're possessed with a power bigger than the pain.'

 

D C D G D

Oh, a power bigger than the pain

 

C D G$

A power bigger than the pain

 

C D G$ D

Heartspark Dollarsign

 

C D G

Heartspark Dollarsign.

 

<At $ symbols, lead guitar plays this fill (it's from the solo)>:

 

|----------12-15-----------------------------------------------|

|----12-15-------12---------15----15---------------------------|

|------------------------------12----11------------------------|

|--------------------------------------------------------------|

|--------------------------------------------------------------|

|--------------------------------------------------------------|

Return to my to my Everclear tabs page

The Tablature is Copyright its respective owners.

Sign Up For My Newsletter
Subscribe | Unsubscribe

Site Map | Disclaimer | Privacy Policy | Media Kit | Submissions/Corrections

Website © 2000-2014 mattsmusicpage.com. All rights reserved.

Legal & DMCA: Matt's Music Page has been providing lyrics and tabs in a legal way, paying royalties each year to a few organizations. Then, all lyrics and tabs were removed from the site. Now, there's a new owner to the site, which purchased it August 26, 2014, and he is in negotiation to obtain licensing from BMI at the moment. If you have a specific DMCA request -- please do not hesitate to contact me via the contact button on top. I will do my very best to keep this site fully legal.

Get our toolbar!