Your One-Stop Source For
Music Lyrics
Bass and Guitar Tabs
and More...
>Music Lyrics Bass and Guitar Tabs

 

The Tabs Are Below

Learn To Read Tab
Chords Handbook
Corrections & Additions
Get Official Tab
Everclear tabs @ 911Tabs

genius.txt

 

[This was created with TabIt for Windows version 1.3]

 

E :-------------------- 3|----------------|----------------|

B :x-x-x-x-x-x-x-x-x-x- ||----------------|----------------|

G :7-7-7-7-7-7-7-7-7-7-*||----------------|----------------|

D :x-x-x-x-x-x-x-x-x-x-*||------7-*-------|----------------|

A :x-x-x-x-x-x-x-x-x-x- ||9-8-7-5-7-6-5-0-|4-4-4-4-4-4-4-4-|

E :-------------------- ||7-6-5-*-5-4-3-0-|2-2-2-2-2-2-2-2-|

 

E :----------------|| -------------------- 3|

B :----------------|| x-x-x-x-x-x-x-x-x-x- ||

G :----------------||*7-7-7-7-7-7-7-7-7-7-*||

D :----------------||*x-x-x-x-x-x-x-x-x-x-*||

A :5-5-5-5-5-5-5-5-|| x-x-x-x-x-x-x-x-x-x- ||

E :3-3-3-3-3-3-3-3-|| *------------------- ||

 

 

Return to my to my Everclear tabs page

The Tablature is Copyright its respective owners.

Sign Up For My Newsletter
Subscribe | Unsubscribe

Site Map | Disclaimer | Privacy Policy | Media Kit | Submissions/Corrections

Website © 2000-2014 mattsmusicpage.com. All rights reserved.

Legal & DMCA: Matt's Music Page has been providing lyrics and tabs in a legal way, paying royalties each year to a few organizations. Then, all lyrics and tabs were removed from the site. Now, there's a new owner to the site, which purchased it August 26, 2014, and he is in negotiation to obtain licensing from BMI at the moment. If you have a specific DMCA request -- please do not hesitate to contact me via the contact button on top. I will do my very best to keep this site fully legal.

Get our toolbar!

 

1978 GUILD B-302 Bass Guitar Makes You Glad You're A Bass Player Vintage Ad
$9.95
1978 GUILD B-302 Bass Guitar Makes You Glad You're A Bass Player Vintage Ad picture


1976 Gibson Ripper Electric Bass Guitar photo "Rip Your Ears Off" promo print ad
$9.99
1976 Gibson Ripper Electric Bass Guitar photo


FENDER PRECISION P BASS GUITAR TIE OR HAT PIN PINBACK
$3.0
FENDER PRECISION P BASS GUITAR TIE OR HAT PIN PINBACK picture


THE GRASSROOTS / Rob Grill ( EKO Bass Guitar ) 1960s U.S. Vintage Magazine Ad NM
$15.95
THE GRASSROOTS / Rob Grill ( EKO Bass Guitar ) 1960s U.S. Vintage Magazine Ad NM picture


1980 ONCOR B.G.S. 4000 Bass Guitar Synthesizer “The Touch” Gerald Conway Ad
$7.96
1980 ONCOR B.G.S. 4000 Bass Guitar Synthesizer “The Touch” Gerald Conway Ad picture