Your One-Stop Source For
Music Lyrics
Bass and Guitar Tabs
and More...
Music Lyrics Bass and Guitar Tabs

 

The Tabs Are Below

Learn To Read Tab
Chords Handbook
Corrections & Additions
Get Official Tab
Everclear tabs @ 911Tabs

Electra Made Me Blind

By Everclear

Tabbed by TNitz303@aol.com

 

I'm not tabbing out rythym, but at least I'll put how many times to play the chords.

Starts out clean, then he hits the overdrive.

 

Verse Chorus(1st time)

Amaj7 B B7 D D7 A

||-------------8--8---------------||-------5--5----------8--8-----|-------------

||----5--8--5--5--5--5--8--5--5---||---4---4--4--4---7---7--7--7--|-------------

||*---6--6--6--6--6--6--6--6--6--*||---4---4--4--4---7---7--7--7-*|-------------

||*---7--7--7--7--7--7--7--7--7--*||---4---4--4--4---7---7--7--7-*|---7--7------

||--------------------------------||---2---2--2--2---5---5--5--5--|---7--7------

||--------------------------------||------------------------------|---5--5------

 

Chorus(2nd time)

F E A F E G

----------------0--------------------|------------------------------------------

----------------0--------------------|------------------------------------------

----------------1--------------------|*-----------------------------------------

7\----3--3---2--2--------------------|*--7--7--7\----3--3--2------2--2---5------

7\----3--3---2--2--2--2--2--2--2--2--|---7--7--7\----3--3--2------2--2---5------

5\----1--1---0--0--0--0--0--0--0--0--|---5--5--5\----1--1--0------0--0---3------

PM..............|

 

Solo

---||------------------------------------------------------------------||-------

---||---------------------------10--10--10--9--9--5--5/8--8------------||-------

--*||*--6--6--6--6--9--9--9--9----------------------------9-----------*||-------

5-*||*----------------------------------------------------------------*||-------

5--||------------------------------------------------------------------||-------

3--||------------------------------------------------------------------||-------

 

 

Repeat chorus

--------------------------------------------------------------|-----------------

5--5--8--5--10--10--13--10---/17--17--17--17--17--17--17--17--|-----------------

6--6--6--6--11--11--11--11---/18--18--18--18--18--18--18--18--|-----------------

7--7--7--7--12--12--12--12---/19--19--19--19--19--19--19--19--|-----------------

--------------------------------------------------------------|-----------------

--------------------------------------------------------------|-----------------

 

That's all the parts to the song. Have fun.

Any question,requests,or anything else, E-mail me at TNitz303@aol.com or BZJZ28A@prodigy.com

(preferably at TNitz303@aol.com)

Does anyone know the Heroin Girl solo, My Sexual Life, Tearjerker, or Get In The Ring?

================================================================================

== TABLATURE EXPLANATION ==

================================================================================

 

---------- ----------

----5h8--- Hammeron ----(8)--- Ghost Note

---------- ----------

----5p8--- Pulloff ----------

 

---------- ----------

----5/8--- Slide Up -----x---- Dead Note

---------- ----------

----5\8--- Slide Down ----------

 

---------- ||------|| Repeat Start & End

----5~~~-- Vibrato ||*----*||

---------- ||*----*||

---------- ||------||

 

PM=Palm mute

 

Return to my to my Everclear tabs page

The Tablature is Copyright its respective owners.

Sign Up For My Newsletter
Subscribe | Unsubscribe

Site Map | Disclaimer | Privacy Policy | Media Kit | Submissions/Corrections

Website © 2000-2014 mattsmusicpage.com. All rights reserved.

Legal & DMCA: Matt's Music Page has been providing lyrics and tabs in a legal way, paying royalties each year to a few organizations. Then, all lyrics and tabs were removed from the site. Now, there's a new owner to the site, which purchased it August 26, 2014, and he is in negotiation to obtain licensing from BMI at the moment. If you have a specific DMCA request -- please do not hesitate to contact me via the contact button on top. I will do my very best to keep this site fully legal.

Get our toolbar!

 

Starbucks You Are Here Coffee Mug/Cup KENTUCKY - Horses, Banjo, Blue, White
$19.99
Starbucks You Are Here Coffee Mug/Cup KENTUCKY - Horses, Banjo, Blue, White picture


KNOWLES ROCKWELL HERITAGE "THE BANJO PLAYER" FIRST EDITION 1989 PLATE COA
$5.99
KNOWLES ROCKWELL HERITAGE


Vintage Postcard 1981 Disney World Banjo Kings Main Street USA 1981 Postmark
$4.99
 Vintage Postcard 1981 Disney World Banjo Kings Main Street USA 1981 Postmark picture


Banjo Barometer With Thermometer Hygrometer 490mm
$84.76
Banjo Barometer With Thermometer Hygrometer 490mm picture


ANTIQUE JAPANESE NIPPON FIGURINE SET OF 3 WOMEN GEISHA PLAYING DRUM BANJO FAN
$24.0
ANTIQUE JAPANESE NIPPON FIGURINE SET OF 3 WOMEN GEISHA PLAYING DRUM BANJO FAN picture